Silverchair - Blind Chords & Tabs

 

Blind Chords & Tabs

Silverchair Chords & Tabs

Version: 4 Type: Tab 0 ratings
1 star 2 stars 3 stars 4 stars 5 stars
comments

Blind Tab

Tuning:DADGBE

INTRO x4 Chorus Effect
|-----------------------------------|
|-----------------------------------|
|-----------------------------------|
|-----0----------10---------9-------|
|---0---------10----10----9---------|
|-0-----0--10-----------9-----5-0-3-|

VERSE x4 Chorus Effect               More Distortion x4
|-----------------------------------|----------------------------------|
|-----------------------------------|----------------------------------|
|-----------------------------------|----------------------------------|
|-----0----------10---------9-------|-----0---------10---------9-5-0-3-|
|---0---------10----10----9---------|---0---------10---10----9---5-0-3-|
|-0-----0--10-----------9-----5-0-3-|-0-----0--10----------9-----5-0-3-|
[ Tab from: http://www.guitartabs.cc/tabs/s/silverchair/blind_tab_ver_4.html ]
PRE CHORUS 
Chorus Effect          x6 More Distortion
|---------|-----------|--------------|
|---------|-----------|--------------|
|---------|-----------|--------------|
|---------|-----------|-00000000006--|
|-------3-|-----x---3-|-00000000006--|
|-0-0-2-3-|-0-0-x-2-3-|-00000000006--|

CHORUS x4 Still Distortion
|-----------------------------------------|
|-----------------------------------------|
|-----------------------------------------|
|-0-0-2-3-0-0-0-2-3-x-x-0-0-2-3-0-0-x-6-5-|
|-0-0-2-3-0-0-0-2-3-x-x-0-0-2-3-0-0-x-6-5-|
|-0-0-2-3-0-0-0-2-3-x-x-0-0-2-3-0-0-x-6-5-|

INTRO instead of 4x,its 2x

VERSE

PRE CHORUS

CHORUS

CHORUS instead of 4x,its 2x (to make that solo-thingy,bring a crapload
of distortion and feedback)

PRE CHORUS (only the part that you play 6 times which is now played 8 x)
Comments