Silverchair - Blind Chords & Tabs

 

Blind Chords & Tabs

Silverchair Chords & Tabs

Version: 2 Type: Tab 0 ratings
1 star 2 stars 3 stars 4 stars 5 stars
comments

Blind Tab

#----------------------------------PLEASE NOTE---------------------------------#
#This file is the author's own work and represents their interpretation of the #
#song. You may only use this file for private study, scholarship, or research. #
#------------------------------------------------------------------------------##
From: bed@melbpc.org.au (Andrew Bednarz)
Subject: TAB: Blind - silverchair
Date: Tue, 1 Aug 1995 08:07:00 UTC+10

----------------------
  BLIND - Silverchair
----------------------
  from the Tomorrow EP
  Transcribed by Andrew Bednarz, Thanks to Justin Rudge

  ***DROP D TUNING***

    This is my favourite silverchair song, and I figured out how to
play it thanks to a friend of mine.

[ Tab from: http://www.guitartabs.cc/tabs/s/silverchair/blind_tab_ver_2.html ]
  ****MAIN VERSE RIFF********
e:--------------------------------------------------------------|
B:--------------------------------------------------------------|
G:--------------------------------------------------------------|
D:--------0-------------10------------9-------------------------|
A:-----0------------10------10-----9----------------------------|
D:--0--------0--10--------------9--------5--0--3--0-------------|


  ***END OF VERSE***     ***BRIDGE TO CHORUS***
e:-------------------|---------------------------------|
B:-------------------|---------------------------------|
G:-------------------|---------------------------------|
D:-------------------|----0--xxxx-0--xxxx-0-xxxx--6/7--|
A:-------------------|----0--xxxx-0--xxxx-0-xxxx--6/7--|
D:--0----0--2--3-----|----0--xxxx-0--xxxx-0-xxxx--6/7--|


   ***CHORUS***
e:----------------------------------------------------------------------|
B:----------------------------------------------------------------------|
G:----------------------------------------------------------------------|
D:--0----0--2--3----0--0---0--2--3------0----0--2--3----0--0---0--6--5--|
A:--0----0--2--3----0--0---0--2--3------0----0--2--3----0--0---0--6--5--|
D:--0----0--2--3----0--0---0--2--3------0----0--2--3----0--0---0--6--5--|


--== Bed ==--
---------------------
  bed@melbpc.org.au
---------------------
Comments