Silverchair - Blind Chords & Tabs

 

Blind Chords & Tabs

Silverchair Chords & Tabs

Version: 1 Type: Tab 0 ratings
1 star 2 stars 3 stars 4 stars 5 stars
comments

Blind Tab

By:Silverchair
Song: Blind
Tabbed By: Ben Shaddrick
email me At Infestedfood@yahoo.com

Intro/verse:
e---------------------------------------------|
B---------------------------------------------|
G---------------------------------------------|
D-----------10-------8-------6---4--2/4-------|
A--------11--------9-------7-----5--3/5-------|
E------9------9--7----7--5----5--3--1/3-------|x8

Back Up guiatat for verse:
e--------------------------------------------------------|
B--------------------------------------------------------|
G--------------------------------------------------------|
D----10-10-10-x-x-x-8-8-7-x-x-x-6-6-6-x-x-x-4---2/4------|
A----11-11-11-x-x-x-9-9-9-x-x-x-7-7-7-x-x-x-5---3/5------|
E----9--9--9--x-x-x-7-7-7-x-x-x-5-5-5-x-x-x-3---1/3------|x6

Play Intro/verse 6 times with this back up verse as a second guitar
if its only you i suggest you play intro and back up guitar for verse
sounds good!

riff:
e-----------------|
B-----------------|
G-----------------|
D-----10-----10---|
A-----11--11------|
E---9-------------|


Chorus:
e-------------------------------------|
B-------------------------------------|
G--------------------6-6--------------|
D---3-3--3p1-3p1-3---6-6--------------|
A---3-3--3p1-3p1-3---4-4--------------|
E---1-1-------------------------------| x6

Riff 2:
e------------------------------|
B------------------------------|
G---3-0-2-3--3-3-0-2--3--------|
D---3-0-2-3--3-3-0-2--3--------|
A---3-0-2-3--3-3-0-2--3--------|
E---3-0-2-3--3-3-0-2--3--------|x8
[ Tab from: http://www.guitartabs.cc/tabs/s/silverchair/blind_tab.html ]
verse: 
e----------------------------------------|
B----------------------------------------|
G----------------------------------------|
D-----------10-----8-----6--4--2/4-------|
A--------11------9-----7----5--3/5-------|
E------9-------7-----5------3--1/3-------|x6
play the verse for guitar 1 6 times then play it another 6 times
with the back up guiatr playing(=
goodluck!

Back Up guiatat for verse: 
e--------------------------------------------------------|
B--------------------------------------------------------|
G--------------------------------------------------------|
D----10-10-10-x-x-x-8-8-7-x-x-x-6-6-6-x-x-x-4---2/4------|
A----11-11-11-x-x-x-9-9-9-x-x-x-7-7-7-x-x-x-5---3/5------|
E----9--9--9--x-x-x-7-7-7-x-x-x-5-5-5-x-x-x-3---1/3------|x6

riff:
e-----------------|
B-----------------|
G-----------------|
D-----10-----10---|
A-----11--11------|
E---9-------------|


Chorus:
e-------------------------------------|
B-------------------------------------|
G--------------------6-6--------------|
D---3-3--3p1-3p1-3---6-6--------------|
A---3-3--3p1-3p1-3---4-4--------------|
E---1-1-------------------------------| x8

Riff 2:
e-----------------------------|
B-----------------------------|
G---3-0-2-3--3-3-0-2-3--------|
D---3-0-2-3--3-3-0-2-3--------|
A---3-0-2-3--3-3-0-2-3--------|
E---3-0-2-3--3-3-0-2-3--------|x8

Chorus:
e-------------------------------------|
B-------------------------------------|
G--------------------6-6--------------|
D---3-3--3p1-3p1-3---6-6--------------|
A---3-3--3p1-3p1-3---4-4--------------|
E---1-1-------------------------------| x6

I have always loved this song its great! I was just sitting here and
started playing it out of the blue and i have never played it befor
that just tells you how easy it is!
some things might be a bit confusing try listening to the cd if you
dont have it and cant get access to the song only in a serious case
(= email me at Infestedfood@yahoo.com
Goodluck
Peace
Silverchair rocks!
Comments