Silverchair - Anthem For The Year Chords & Tabs

 

Anthem For The Year Chords & Tabs

Silverchair Chords & Tabs

Version: 1 Type: Bass Tab 0 ratings
1 star 2 stars 3 stars 4 stars 5 stars
comments

Anthem For The Year Bass Tab

Silverchair - Anthem for the Year 2000

The tab already existing at the archive is completly wrong. I took a better one and corracted it.
The original tab was by Dale Zimmer and - respect! - it was 99% close! So I just added 
a system in which order the Riffs are played, and the rythem (I know this is very useful for
beginners). 

This song is very easy and a lot of fun to play loud. 

Main Riff:
|---------------------------------|
|---------------------------------|
|-----------------------3---------|
|-7---7-5-7-5-7\2-3---3---0---0---|
  1 + 2 + 3 + 4 + 1 + 2 + 3 + 4 +

Fill 1:
|---------------------------------|
|---------------------------------|
|---------------------------------|
|-7~~~------------1~~~------------|
  1 + 2 + 3 + 4 + 1 + 2 + 3 + 4 +
[ Tab from: http://www.guitartabs.cc/tabs/s/silverchair/anthem_for_the_year_btab.html ]
Riff 2:
|---------------------------------|
|---------------------------------|
|-----------------------3---------|
|/7--/7-------------------0~~~----|
  1 + 2 + 3 + 4 + 1 + 2 + 3 + 4 +

Riff 3:
|---------------------------------|
|---------------------------------|
|-----------------------3---------|
|/7--/7-------------------0---0---|
  1 + 2 + 3 + 4 + 1 + 2 + 3 + 4 +

System

Rest ca.27 seconds then 
Main Riff  4x
Rest ca.20 seconds then
Main Riff  4x
Fill 1  1x
Rest ca.10 seconds then
Main Riff  8x
Riff 2  2x
Main Riff  4x
Rest ca.10 seconds then
Main Riff  6x
Riff 3  2x


Explination:    |-3~~~-| : let this note ring
                |-/3---| : slide up to this note
                |-\3---| : slide down to this note


This Tab was adjusted by Dennis Drögemüller, Member of the Bass Tab Archive Tabbing Army
Please send comments to zero1000@gmx.net or ICQ-Number:105478977

"I'm not like them, but I can pretend, 
 the sun is gun but I have a light,
 the day is done, but I'm having fun,
 I think I'm dumb or may just happy" - Nirvana, Dumb  

Keep the fire burning, 4-string wizards!!! 

Comments