Silverchair - Anthem For The Year 2000 Chords & Tabs

 

Anthem For The Year 2000 Chords & Tabs

Silverchair Chords & Tabs

Version: 6 Type: Tab 0 ratings
1 star 2 stars 3 stars 4 stars 5 stars
comments

Anthem For The Year 2000 Tab

Song-Anthem For The Year 2000
Band-silverchair
Album-Neon Ballroom

Tab transcribed by Mason Sullivan

Normal Tuning

KEY
/ - slide up
\ - slide down
v - vibrato/trill note
b - bend
X - muted string


INTRO

Drums start, sum feedback

|-----------------|
|-----------------|
|--9-9-8-8-7-7-6--|
|-----------------|
|-----------------|
|-----------------|

GTR 1
|---------------------------|
|---------------------------|
|---------------------------|
|--9-9--7-9-7---4-4-5--7-5-4|x2
|--9-9--7-9-7---4-4-5--7-5-4|
|--7-7--5-7-5---2-2-3--5-3-2|

GTR 2 (distortion)
GTR 3 (with tremolo effect)
|-------------------------|-------------------------|
|-------------------------|-------------------------|
|-------------------------|-------------------------|
|--/7---------------------|--5--/7------------------|
|-------------------------|-------------------------|
|-------------------------|-------------------------|

GTR 1
|---------------------------|
|---------------------------|
|---------------------------|
|--9-9--7-9-7---4-4-5--7-5-4|x2
|--9-9--7-9-7---4-4-5--7-5-4|
|--7-7--5-7-5---2-2-3--5-3-2|

GTR 2 (distortion)
GTR 3 (with tremolo effect)
|-------------------------|-------------------------|
|-------------------------|-------------------------|
|---------5---------------|---------7------9--------|
|--5--/7-------0----------|--5--/7----0-------------|
|-------------------------|-------------------------|
|-------------------------|-------------------------|

VERSE
|-------------------------|-------------------------|
|-------------------------|-------------------------|
|-------------------------|-------------------------|
|-------------------------|-------------------------|
|-------------------------|-------------------------|
|-------------------------|--------------------X----|

We are the youth, we'll take your fascism away
We are the youth, apologise for another day

|-------------------------|-------------------------|
|-------------------------|-------------------------|
|-------------------------|-------------------------|
|-------------------------|-------------------------|
|-------------------------|-------------------------|
|-------X----X----------X-|---------------------X---|
                                                
We are the youth, and politicians are so sure
We are the youth, and we are knocking on death's door


CHORUS
GTR 1
|---------------------------|
|---------------------------|
|---------------------------|
|--9-9--7-9-7---4-4-5--7-5-4|x2
|--9-9--7-9-7---4-4-5--7-5-4|
|--7-7--5-7-5---2-2-3--5-3-2|
[ Tab from: http://www.guitartabs.cc/tabs/s/silverchair/anthem_for_the_year_2000_tab_ver_6.html ]
GTR 2 (distortion)
|-------------------------|-------------------------|
|-------------------------|-------------------------|
|-------------------------|-------------------------|
|--/7*--------------------|--5--/7*-----------------|
|-------------------------|-------------------------|
|-------------------------|-------------------------|
  *(the signal is cut off while holding these notes)

GTR 1
|---------------------------|
|---------------------------|
|---------------------------|
|--9-9--7-9-7---4-4-5--7-5-4|x2
|--9-9--7-9-7---4-4-5--7-5-4|
|--7-7--5-7-5---2-2-3--5-3-2|

GTR 2 (distortion)
|-------------------------|-------------------------|
|-------------------------|-------------------------|
|---------5----7----------|---------7------9--------|
|--5--/7-------0----------|--5--/7----0-------7\5---|
|-------------------------|-------------------------|
|-------------------------|-------------------------|

Never knew we were living in a world and the world is an open court
Maybe we don't want to live in a world where innocence is so short
BREAK
GTR 1  (wah closed)
|-------------------------|
|-------------------------|
|-------------------------|
|-------------------------|
|-------------------------|
|--7----\1----------------|

We'll make it up to you in the year 2000 with...

 
|--------------------|----------------------|
|--------------------|----------------------|
|--------5-----5-----|--5-------4-----5-----|
|--/7-------5-----3--|----/7-------5-----3--|
|--------------------|----------------------|
|--------------------|----------------------|

VERSE  (with wah half open)
|-----------------------|---------------------------|
|-----------------------|---------------------------|
|--5------5-------5-----|--5-----------4------5-----|
|-----/7v-----5~-----3--|-----5b(1/2)-----5~-----3--|
|-----------------------|---------------------------|
|-----------------------|---------------------------|

Never knew we were living in a world with a mind that could be so sure
Never knew we were living in a world with a mind that could be so small

|---------------------------|---------------------------|
|---------------------------|---------------------------|
|--5-----------5------5-----|--5-----------5------5-----|
|-----5b(1/2)-----5~-----3--|-----5b(1/2)-----5v-----3--|
|---------------------------|---------------------------|
|---------------------------|---------------------------|

Never knew we were living in a world and the world is an open court
Maybe we don't want to live in a world where innocence is so short

CHORUS
|---------------------------|
|---------------------------|
|---------------------------|
|--9-9--7-9-7---4-4-5--7-5-4|x2
|--9-9--7-9-7---4-4-5--7-5-4|
|--7-7--5-7-5---2-2-3--5-3-2|

|---------------------------|
|---------------------------|
|---------------------------|
|--9-9--7-9-7---4-4-5--7-5-4|x2
|--9-9--7-9-7---4-4-5--7-5-4|
|--7-7--5-7-5---2-2-3--5-3-2|

Sik Arse Song Enjoi ;-)
Comments