Silverchair - Anthem For The Year 2000 Chords & Tabs

 

Anthem For The Year 2000 Chords & Tabs

Silverchair Chords & Tabs

Version: 4 Type: Tab 0 ratings
1 star 2 stars 3 stars 4 stars 5 stars
comments

Anthem For The Year 2000 Tab

   
Band: silverchair
Song: Anthem for the Year 2000
Album: Neon Ballroom

Tabbed by Blunt Da Mack (nym101@yahoo.com)

Dropped-D tuning. 

[0:00] "studio sounds"

[0:17] drums in

[0:18] faint guitar riff

lead guitar

E|------------|
B|------------|
G|------------| (play this twice)
D|-88-77-66-5-|
A|------------|
D|------------|

[0:28] guitars in - main riff

rhythm guitar

    A  G A G  E F  C D     A  G A G  E F  C D
E|----------------------|----------------------|
B|----------------------|----------------------|
G|-----------------5----|-----------------5----|
D|--7--5-7-5--2-3--5-0--|--7--5-7-5--2-3--5-0--|
A|--7--5-7-5--2-3--3-0--|--7--5-7-5--2-3--3-0--|
D|--7--5-7-5--2-3----0--|--7--5-7-5--2-3----0--|

lead guitar 

E|------------------------|------------------------|
B|------------------------|------------------------|
G|------------------------|------------------------|
D|------------------------|------------------------|
A|-7h---------------------|--5-7h------------------|
D|------------------------|------------------------|

rhythm guitar

    A  G A G  E F  C D     A  G A G  E F  C D
E|----------------------|----------------------|
B|----------------------|----------------------|
G|-----------------5----|-----------------5----|
D|--7--5-7-5--2-3--5-0--|--7--5-7-5--2-3--5-0--|
A|--7--5-7-5--2-3--3-0--|--7--5-7-5--2-3--3-0--|
D|--7--5-7-5--2-3----0--|--7--5-7-5--2-3----0--|

lead guitar

[0:50] verse - guitars out

[1:11] main riff - guitars in

rhythm guitar
E|------------------------|------------------------|
B|------------------------|------------------------|
G|------------------------|---------------5-0------|
D|--------5---7-----------|---------7--------------|
A|--5-7-------------------|--5-7-------------------|
D|------------------------|------------------------|


    A  G A G  E F  C D     A  G A G  E F  C D
E|----------------------|----------------------|
B|----------------------|----------------------|
G|-----------------5----|-----------------5----|
D|--7--5-7-5--2-3--5-0--|--7--5-7-5--2-3--5-0--|
A|--7--5-7-5--2-3--3-0--|--7--5-7-5--2-3--3-0--|
D|--7--5-7-5--2-3----0--|--7--5-7-5--2-3----0--|
lead guitar
[ Tab from: http://www.guitartabs.cc/tabs/s/silverchair/anthem_for_the_year_2000_tab_ver_4.html ]
E|------------------------|------------------------|
B|------------------------|------------------------|
G|------------------------|------------------------|
D|------------------------|------------------------|
A|-7h---------------------|-5-7h-------------------|
D|------------------------|------------------------|

rhythm guitar

    A  G A G  E F  C D     A  G A G  E F  C D
E|----------------------|----------------------|
B|----------------------|----------------------|
G|-----------------5----|-----------------5----|
D|--7--5-7-5--2-3--5-0--|--7--5-7-5--2-3--5-0--|
A|--7--5-7-5--2-3--3-0--|--7--5-7-5--2-3--3-0--|
D|--7--5-7-5--2-3----0--|--7--5-7-5--2-3----0--|

lead guitar

E|------------------------|------------------------|
B|------------------------|------------------------|
G|------------------------|---------------5-0------|
D|--------5---7-----------|---------7--------------|
A|--5-7-------------------|--5-7-------------------|
D|------------------------|------------------------|

[1:33] bridge


E|-------|
B|-------|
G|-------|
D|-7---1-|
A|-7---1-|
D|-7---1-|
[1:39] first solo- 

lead guitar

|----------------|
|----------------|
|-------5---5---0| (play this twice)
|-5s7h----5---3--|
|----------------|
|----------------|

[1:49] verse - both guitars

|----------------|
|----------------|
|-------5---5---0| (play this four times)
|-5s7h----5---3--|
|----------------|
|----------------|
   
[2:11] 
chorus

    A  G A G  E F  C D     A  G A G  E F  C D
E|----------------------|----------------------|
B|----------------------|----------------------|
G|-----------------5----|-----------------5----|
D|--7--5-7-5--2-3--5-0--|--7--5-7-5--2-3--5-0--|
A|--7--5-7-5--2-3--3-0--|--7--5-7-5--2-3--3-0--|
D|--7--5-7-5--2-3----0--|--7--5-7-5--2-3----0--|

[2:32] bridge

E|------------|
B|------------|
G|------------| (play this twice)
D|-5---7---5-0|
A|-5---7---5-0|
D|-5---7---3-0|

[2:43] second solo

E|-------------------------------------------|
B|-------------------------------------------|
G|------------------------------7--8--10--12b|
D|-5h-6h-8-5h-6h-3-5--6--8--10---------------|
A|-------------------------------------------|
D|-------------------------------------------|

[3:16] chorus

chorus

    A  G A G  E F  C D     A  G A G  E F  C D
E|----------------------|----------------------|
B|----------------------|----------------------|
G|-----------------5----|-----------------5----|
D|--7--5-7-5--2-3--5-0--|--7--5-7-5--2-3--5-0--|
A|--7--5-7-5--2-3--3-0--|--7--5-7-5--2-3--3-0--|
D|--7--5-7-5--2-3----0--|--7--5-7-5--2-3----0--|

[3:48] end riff

E|------------|
B|------------|
G|------------| (play this twice)
D|-5---7---5-0|
A|-5---7---5-0|
D|-5---7---3-0|

[4:00] end

[4:07] song over

peace out,
Blunt Da Mack
Comments