Silverchair - Anthem For The Year 2000 Chords & Tabs

 

Anthem For The Year 2000 Chords & Tabs

Silverchair Chords & Tabs

Version: 1 Type: Tab 0 ratings
1 star 2 stars 3 stars 4 stars 5 stars
comments

Anthem For The Year 2000 Tab

Silverchair-Anthem For The Year 2000
TUNING - Dropped D 

-Intro/Verse-
|-------------------------|-------------------------|
|-------------------------|-------------------------|
|--------------------5----|--------------------5----| repeat
|--7-7--5-7-5---2-3--5-0--|--7-7--5-7-5---2-3--5-0--|
|--7-7--5-7-5---2-3--3-0--|--7-7--5-7-5---2-3--3-0--|
|--7-7--5-7-5---2-3----0--|--7-7--5-7-5---2-3----0--|


-Chorus-
|-------------------------|-------------------------|
|-------------------------|-------------------------|
|--------------------5----|--------------------5----|
|--7-7--5-7-5---2-3--5-0--|--7-7--5-7-5---2-3--5-0--|
|--7-7--5-7-5---2-3--3-0--|--7-7--5-7-5---2-3--3-0--|
|--7-7--5-7-5---2-3----0--|--7-7--5-7-5---2-3----0--|

[ Tab from: http://www.guitartabs.cc/tabs/s/silverchair/anthem_for_the_year_2000_tab.html ]
-Breakdown-
|--------------------|----------------------|
|--------------------|----------------------|
|--------5-----5-----|--5-------4-----5-----|
|--/7-------5-----3--|----/7-------5-----3--|
|--------------------|----------------------|
|--------------------|----------------------|

-2ndVerse-
|-----------------------|---------------------------|
|-----------------------|---------------------------|
|--5------5-------5-----|--5-----------4------5-----|
|-----/7~-----5~-----3--|-----5^(1/2)-----5~-----3--|
|-----------------------|---------------------------|
|-----------------------|---------------------------|


-Bridge-
|--------------|------------|
|--------------|------------|
|-------5------|-------5----|
|--7-7--5-0-0--|--7-7--5-0--|
|--7-7--3-0-0--|--7-7--3-0--|
|--7-7----0-0--|--7-7----0--|


-Outro-
|--------------|--------------|
|--------------|--------------|
|-------5------|-------5------|
|--7-7--5-0-0--|--7-7--5-0-0--|
|--7-7--3-0-0--|--7-7--3-0-0--|
|--7-7----0-0--|--7-7----0-0--|
Comments