Silverchair - Anthem For The Year 2000 Chords & Tabs

 

Anthem For The Year 2000 Chords & Tabs

Silverchair Chords & Tabs

Version: 2 Type: Bass Tab 0 ratings
1 star 2 stars 3 stars 4 stars 5 stars
comments

Anthem For The Year 2000 Bass Tab

Silverchair
Anthem For The Year 2000
Tabber: Craig Palmer

This is my first tab and I think its right it sounds good to me, please rate it

Drop D tuning

Verse:
G ----------------------------------------l
D ----------------------------------------l
A ----------------------------3-----------l
D -7-7-5-7-5-----2-3-3---0-0--------------l
[ Tab from: http://www.guitartabs.cc/tabs/s/silverchair/anthem_for_the_year_2000_btab_ver_2.html ]
Bridge
G ----------------------------------------l
D ----------------------------------------l
A ------------------------3---------------l
D -7-7------------------0-0---------------l

Change of verse
G ----------------------------------------l
D ----------------------------------------l
A ----------------------------3-----------l
D -7-7-5-7-5-----2-3-3---0-0-5------------l

Enjoy…
Comments