Silverchair - Ana's Song (open Fire) Chords & Tabs

 

Ana's Song (open Fire) Chords & Tabs

Silverchair Chords & Tabs

Version: 3 Type: Tab 0 ratings
1 star 2 stars 3 stars 4 stars 5 stars
comments

Ana's Song (open Fire) Tab

   
SONG: Ana's song (OPEN FIRE)
ARTIST: silverchair
ALBUM: Neon ballroom
TRANSCRIBED BY: Ashlea Reale 
		skitzo_ash@hotmail.com

CAPO 3rd FRET
ALL CHORDS RELATIVE TO CAPO


VERSE 1:
   Cadd9            Asus4               Em
e|---------3-----------------0-----------------0----|. repeat
B|-----------3-----------------1---------------0----|.
G|-----0-------0---------0-------0-----------0-0----|.
D|---2---2-------2-----2---2-------2-------2--------|.
A|-3-----------------0-------------------2----------|.
E|-------------------------------------0------------|.

Please die Ana
For as long as you're here we're not
You make the sound of laughter
and sharpened nails seem softer
And I need you now somehow
And I need you now somehow


PRE CHORUS:
[ Tab from: http://www.guitartabs.cc/tabs/s/silverchair/anas_song_open_fire_tab_ver_3.html ]
    G        G/Gb
e|--3-3-3-3--0-0-0-0---------
B|--3-3-3-3--3-3-3-3---------
G|--0-0-0-0--0-0-0-0---------
D|--0-0-0-0--0-0-0-0---------
A|--2-2-2-2--0-0-0-0---------
E|--3-3-3-3--2-2-2-2---------


CHORUS:

   D   A   G
e|-5---5---3-----
B|-7---5---3-----
G|-7---6---4-----
D|-7---7---5-----
A|-5---7---5-----
E|-x---5---3-----

Open fire on the needs designed
On my knees for you
Open fire on my knees desires
What I need from you

VERSE:

Imagine pageant
In my head the flesh seems thicker
Sandpaper tears corrode the film

And I need you now somehow
And I need you now somehow


CODA:

And you're my obsession
I love you to the bones
And Ana wrecks your life
Like an Anorexia life

this is one of my favourite songs by silverchair. it should be easy to play. if 

you have any trouble email me back. skitzo
Comments