Silverchair - Ana's Song (open Fire) Chords & Tabs

 

Ana's Song (open Fire) Chords & Tabs

Silverchair Chords & Tabs

Version: 2 Type: Tab 1 rating
1 star 2 stars 3 stars 4 stars 5 stars
comments

Ana's Song (open Fire) Tab

   
#----------------------------------PLEASE NOTE---------------------------------#
#This file is the author's own work and represents their interpretation of the #
#song. You may only use this file for private study, scholarship, or research. #
#------------------------------------------------------------------------------#

Ana's Song (Open Fire)

Transcribed by Dennis Bourdon. Alterations made by Kristoffer Vural & Jared P.

Standard tuning. 

[0:00] Verse
acoustic guitar (2 guitars actually)

       D#sus2  Cm      Gm
e||----6-6-6-6-3-3-3-3-3-3-3-3---3-3-3----|| x4
B||----6-6-6-6-4-4-4-4-3-3-3-3---3-3-3----||
G||-o--8-8-8-8-5-5-5-5-3-3-3-3---3-3-3--o-||
D||-o--8-8-8-8-5-5-5-5-5-5-3-5---5-3-5--o-||
A||----6-6-6-6-3-3-3-3-5-5-3-5---5-3-5----||
E||--------------------3-3-3-3---3-3-3----||

electric guitar (clean tone -play this for the first bar;
                 for the other, it's similar to the acoustic)

       D#      Cm      Gm
e|-----------------------------------------|
B|---------8-------4-------3-------3-------|
G|-----------8-------5---3---3-------3-----|
D|-------8-------5-------------------------|
A|-----6-------3---------------------------|
E|---------------------3-------3-----------|

Please die Ana ...

[0:23] Prechorus
lead guitar
||----------------------------|| x2
||----------------------------||
||-o--3-3--/12-13-12--5-5/7-o-||
||-o--x-x--/x--x--x---x-x/x-o-||
||----1-1--/10-11-10--3-3/5---||
||----------------------------||
And I need you now somehow (x2)

[0:36] Chorus
  A#5     F5
|-----------------|
|-----------------|
|-3-3-3-3---------|
|-3-3-3-3-3-3-3-3-|
|-1-1-1-1-3-3-3-3-|
|---------1-1-1-1-|

      E               Asus2/F#          A
||--------0-------0-------0-------0---|-----0-------0-------0-------0------||
||--------0-------0-------0-------0---|-----2-------2-------2-------2------||
||-o------1-------1-------2-------2---|-----2-------2-------2-------2----o-||
||-o------2-------2-------2-------2---|-2-2-2-2-2-2-2-2-2-2-2-2-2-2-2-2--o-||
||----2-2-2-2-2-2-2-2-0-0-0-0-0-0-0-0-|-0-0-0-0-0-0-0-0-0-0-0-0-0-0-0-0----||
||----0-0-0-0-0-0-0-0-2-2-2-2-2-2-2-2-|------------------------------------||

Open fire ...

[1:00] Bridge
rhythm guitar
  D#5     C       G                    D#5     C       G                 x2
|--------------------------------||--------------------------------------||
|--------------------------------||--------------------------------------||
|-8-8-8-8-5-5-5-5----------------||-o--8-8-8-8-5-5-5-5-----------------o-||
|-8-8-8-8-5-5-5-5----------------||-o--8-8-8-8-5-5-5-5-----------------o-||
|-6-6-6-6-3-3-3-3-5-5-3-5--5-3-5-||----6-6-6-6-3-3-3-3-5-5-3-5--5-3-5----||
|-----------------3-3-3-3--3-3-3-||--------------------3-3-3-3--3-3-3----||

lead guitar                                                              x2
|--------------------------------||--------------------------------------||
|--------------------------------||--------------------------------------||
|-----------------5--------------||-o--3-3--/12-13-12--5-5/7-----------o-||
|-----------------------5--------||-o--x-x--/x--x--x---x-x/x-----------o-||
|--------------------------------||----1-1--/10-11-10--3-3/5-------------||
|--------------------------------||--------------------------------------||
                 °°°   °°°  (play the natural harmonics)

[1:12] Verse - keyboard arranged for guitar:
||-------------|| x8
||----6b8-8----||
||-o---------o-||
||-o---------o-||
||-------------||
||-------------||

Imagine a pageant
In my head the flesh seems thicker
[ Tab from: http://www.guitartabs.cc/tabs/s/silverchair/anas_song_open_fire_tab_ver_2.html ]
[1:24] Prechorus (Distorted)            (Distorted)
  D#5     D#5-   G5  
|-------------------------------||----------------------------| 
|-------------------------------||----------------------------|
|-8-8-8-8-8-8--8----------------||-o--3-3--/12-13-12--5-5/7-o-|
|-8-8-8-8-7-7--8----------------||-o--x-x--/x--x--x---x-x/x-o-|
|-6-6-6-6-6-6--6-5-5-3-5--5-3-5-||----1-1--/10-11-10--3-3/5---|
|----------------3-3-3-3--3-3-3-||----------------------------|

Sandpaper tears corrode the filth   

 
     (Distorted)
|----------------------------|
|----------------------------|
|-o--3-3--/12-13-12--5-5/7-o-||
|-o--x-x--/x--x--x---x-x/x-o-||
|----1-1--/10-11-10--3-3/5---||
|----------------------------||
    And I need you now somehow
 

[1:42] Chorus (Clean)
  A#5             F5
|---------------------------------|
|---------------------------------|
|-3-3-3-3-3-3-3-3-----------------|
|-3-3-3-3-3-3-3-3-3-3-3-3-3-3-3-3-|
|-1-1-1-1-1-1-1-1-3-3-3-3-3-3-3-3-|
|-----------------1-1-1-1-1-1-1-1-|

      E               Asus2/F#          A                 Am   C5add9 G5       x2
||--------0-------0-------0-------0---|-----0-------0-------0------------------||
||--------0-------0-------0-------0---|-----2-------2-------1--3-3-3--3-3-3----||
||-o------1-------1-------2-------2---|-----2-------2-------2--0-0-0--0-0-0--o-||
||-o------2-------2-------2-------2---|-2-2-2-2-2-2-2-2-2-2-2- x-x-x--0-0-0--o-||
||----2-2-2-2-2-2-2-2-0-0-0-0-0-0-0-0-|-0-0-0-0-0-0-0-0-0-0-0--3-3-3--x-x-x----||
||----0-0-0-0-0-0-0-0-2-2-2-2-2-2-2-2-|-------------------------------3-3-3----||

Open fire ...

[2:12] Break (Distortion on)
  C5/G    D5/A    E5  E5-  C5/G    D5/A    E5 A#5-
|------------------------|------------------------|
|------------------------|------------------------|
|-5-5-5-5-7-7-7-7-9-9--9-|-5-5-5-5-7-7-7-7------3-|
|-5-5-5-5-7-7-7-7-9-9--8-|-5-5-5-5-7-7-7-7-2-2--2-|
|-3-3-3-3-5-5-5-5-7-7--7-|-3-3-3-3-5-5-5-5-2-2--1-|
|-3-3-3-3-5-5-5-5--------|-----------------0-0----|

  C5/G    F5      E5 A#5-   A#5      F5      E5
|-------------------------|------------------------0--|
|-------------------------|----------------------0----|
|-5-5-5-5--------------3--|-----3---------------------|
|-5-5-5-5-3-3-3-3-2-2--2--|---3---3-----3-------------|
|-3-3-3-3-3-3-3-3-2-2--1--|-1---------3---3----2------|
|-3-3-3-3-1-1-1-1-0-0-----|---------1--------0--------|
                            |-> distortion off
And you're my obsession ...

[2:36] Prechorus (guitars out)
Open fire on the needs designed

[2:44] Chorus - end
  C5add9 G5      E               Asus2/F#          A                 Am
|--------------|-----0-------0-------0-------0---|-----0-------0-------0-|
|-3-3-3--3-3-3-|-----0-------0-------0-------0---|-----2-------2-------1-|
|-0-0-0--0-0-0-|-----1-------1-------2-------2---|-----2-------2-------2-|
|-x-x-x--0-0-0-|-----2-------2-------2-------2---|-2-2-2-2-2-2-2-2-2-2-2-|
|-3-3-3--x-x-x-|-2-2-2-2-2-2-2-2-0-0-0-0-0-0-0-0-|-0-0-0-0-0-0-0-0-0-0-0-|
|--------3-3-3-|-0-0-0-0-0-0-0-0-2-2-2-2-2-2-2-2-|-----------------------|
Open fire on my knees desires


  C5add9 G5      E               Asus2/F#          A                 Am
|--------------|-----0-------0-------0-------0---|-----0-------0-------0-|
|-3-3-3--3-3-3-|-----0-------0-------0-------0---|-----2-------2-------1-|
|-0-0-0--0-0-0-|-----1-------1-------2-------2---|-----2-------2-------2-| (break)
|-x-x-x--0-0-0-|-----2-------2-------2-------2---|-2-2-2-2-2-2-2-2-2-2-2-|
|-3-3-3--x-x-x-|-2-2-2-2-2-2-2-2-0-0-0-0-0-0-0-0-|-0-0-0-0-0-0-0-0-0-0-0-|
|--------3-3-3-|-0-0-0-0-0-0-0-0-2-2-2-2-2-2-2-2-|-----------------------|
Open fire on the needs designed

  C5add9 G5      E               Asus2/F#          A
|--------------|-----0-------0-------0-------0---|-0-|
|-3-3-3--3-3-3-|-----0-------0-------0-------0---|-2-|
|-0-0-0--0-0-0-|-----1-------1-------2-------2---|-2-| (let ring)
|-x-x-x--0-0-0-|-----2-------2-------2-------2---|-2-|
|-3-3-3--x-x-x-|-2-2-2-2-2-2-2-2-0-0-0-0-0-0-0-0-|-0-|
|--------3-3-3-|-0-0-0-0-0-0-0-0-2-2-2-2-2-2-2-2-|---|
Open fire on my knees desires
Comments