Silverchair - Anas Song Chords & Tabs

 

Anas Song Chords & Tabs

Silverchair Chords & Tabs

Version: 1 Type: Bass Tab 0 ratings
1 star 2 stars 3 stars 4 stars 5 stars
comments

Anas Song Bass Tab

silverchair - "Ana's Song (Open Fire)" (Bass Tab)
>From the album "Neon Ballroom"

Transcribed by Benny Schmerr and Kyle Caldwell (not coldwell banking)
Notes:
------
1. The song uses normal tuning.
2. Fill 1 is essentially the same as the 2nd half of riff 3.
3. If you are not sure about any part of the song, the approximate timings 
shown below
   might help.
4. There are no guarantees that this tab is accurate - it is unofficial.  
However, I personally
   am very sure that this tab is 100% accurate.

Riff Order:
-----------
Riff 1 x 2 (0:24)
Fill 1 x 1 (0:36)
Riff 2 x 1 (0:39)
Fill 2 x 1 (0:51)
Riff 1 x 4 (1:00)
Fill 3 x 1 (1:24)
Riff 1 x 2 (1:30)
Fill 4 x 1 (1:42)
Riff 3 x 2 (1:48)
Riff 4 x 1 (2:12)
Fill 5 x 1 (2:46)
Riff 3 x 2 (2:48)
Fill 2 x 1 (3:11)
Fill 5 x 1 (3:21)
Fill 2 x 1 (3:23)

Riff 1:
|--8--------5-------------------|
|--------------------5----------|
|6---6----3---3-----------------|
|------------------3---1-3---3-3|

Fill 1:
|-----------------|
|-----------------|
|1-1-1-1----------|
|----------1-1-1-1|

Riff 2:
|---------------------------------------------------------------------|
|---------------------------------------------------------------------|
|--------------------------------------------------7---7-----------7-7|
|0-0-0-0---0-0-0-0---2-2-2-2---2-2-2-2---5-5-5-5-5-------5-5-5-5-5----|
[ Tab from: http://www.guitartabs.cc/tabs/s/silverchair/anas_song_btab.html ]
Fill 2:
|-----------------------------------------|
|-----------------------------------------|
|-----------------------------------------|
|0-0-0-0---0-0-0-0---2-2-2-2---2-2-2-2---5|

Fill 3:
|-------------------------------------|
|-------------------------------------|
|6-6-6-6---6-6-6-6--------------------|
|--------------------3-3-1-3---3-3-3-3|

Fill 4:
|-------------------------------------|
|-------------------------------------|
|1-1-1-1---1-1-1-1--------------------|
|--------------------1-1-1-1---1-1-1-1|

Riff 3:
|---------------------------------------------------------------------------|
|---------------------------------------------------------------------------|
|--------------------------------------------------7---7---------333--------|
|0-0-0-0---0-0-0-0---2-2-2-2---2-2-2-2---5-5-5-5-5-------5-5-5--------33-3-3|

Riff 4:
|---------------------------------------------------------------------------|
|---------------------------------------------------------------------------|
|3-3-3-3---5-5-5-5---7-7---------7-\---3-3-3-3---5-5-5-5---------------7-\--|
|--------------------------0---0---------------------------0-0---0---0------|

Riff 4 (cont...):
|---------------------------------|
|---------------------------------|
|3-3-3-3-------------------1---1-1|
|----------1-1-1-1---0-0----------|

Fill 5:
|-----------|
|-----------|
|333--------|
|-----33-3-3|


"Heaven send hell away and no one sings like you anymore..."
               -Chris Cornell (Soundgarden)

Comments