Silverchair - Abuse Me Chords & Tabs

 

Abuse Me Chords & Tabs

Silverchair Chords & Tabs

Version: 6 Type: Tab 0 ratings
1 star 2 stars 3 stars 4 stars 5 stars
comments

Abuse Me Tab

   
					ABUSE ME

                             -Words and music by daniel johns-



Drop D Tuning:
E  B  G  D  A  D
1  2  3  4  5  6

This tab is from the freakshow tab book, so im not guessing on anything...






------------------------------------------------------------------------------
------------------------------------------------------------------------------
----------------6--------------------6--------------------------2--0----------
----------0--------0-----------0--------0-----------------0-----------0-------
-------7-----7--------7-----7-----7--------7-----------3-----3-----------3----
----7--------------------7--------------------7--\--3-------------------------  (cont.)


--------------------------------------------------------------------------------------------------------|
--------------------------------------------------------------------------------------------------------|
-------------2--------------------6-----6----------------------6--------------------2-----2--0----------|
----------0-----0--------------------0-----5--0-------------0-----0-------------------------------------|
-------3-----------3-----------7-----------------7-------7-----------7-----------3-----3--------3-------|
----3-----------------3--/--7-------------------------7-----------------7--\--3--------------------3----|


----------------0----------------0----
----------------0----------------0----
----2-2-2-2-/-4-4----2-2-2-2-/-4-4----
----0-0-0-0-/---0----0-0-0-0-/---0----
----3-3-3-3-/-5-5----3-3-3-3-/-5-5----
----3-3-3-3-/-5-5----3-3-3-3-/-5-5----  (cont.)


----------------0----------------0----0-0-x-x----|
----------------0----------------0----0-0-x-x----|
----2-2-2-2-/-4-4----2-2-2-2-/-4-4----4-4-x-x----|
----0-0-0-0-/---0----0-0-0-0-/---0----0-0-x-x----|
----3-3-3-3-/-5-5----3-3-3-3-/-5-5----5-5-x-x----|
----3-3-3-3-/-5-5----3-3-3-3-/-5-5----5-5-x-x----|

[ Tab from: http://www.guitartabs.cc/tabs/s/silverchair/abuse_me_tab_ver_6.html ]
------------------------------------------------------------------------------
------------------------------------------------------------------------------
------------------------------------------------------------------------------
----------7--------------7-----------7--------7--\--------3--------------3----
-------7-----7-----7--------7-----7-----7--------------3-----3-----3----------
----7-----------7-----7--------7-----------7--------3-----------3-----3-------  (cont.)


---------------------------------------------------------------------------------------------------
---------------------------------------------------------------------------------------------------
---------------------------------------------------------------------------------------------------
-------------3--------3--/--------7-----------7-----------7-----------7--------------3-------------
----3-----3-----3--------------7-----7-----7-----7-----7-----7-----7-----7--\-----3----------------
-------3-----------3--------7-----------7-----------7-----------7--------------3-------------------  (cont.)


-----------------------------------|
-----------------------------------|
----------------1-1-1-1-1-2-2-2----|
----------3-----0-0-0-0-0-0-0-0----|
----3--------3--2-2-2-2-2-3-3-3----|
-------3--------2-2-2-2-2-3-3-3----|
                P.M......

Screw this, im tired... ill skip ahead to the bridge, im sure all the chords u need are there...


BRIDGE!!!! (a.k.a. the fun part)


--------------------------------------------------------------
--------------------------------------------------------------
---------------5-5---11-11-11-11-11-/-12-12-12-12-/-14-14-----
----7--7--x-x--5-5----x--x--x--x--x-/--x--x--x--x-/--x--x-----
----7--7--x-x--3-3----9--9--9--9--9-/-10-10-10-10-/-12-12-----
----7--7--x-x--3-3--------------------------------------------
The outro is very similar with the intro, just work it out...

Enjoy, and comments/question bull shit post it, and with luck, ill get back to ya
Comments