Silverchair - Abuse Me Chords & Tabs

 

Abuse Me Chords & Tabs

Silverchair Chords & Tabs

Version: 3 Type: Tab 0 ratings
1 star 2 stars 3 stars 4 stars 5 stars
comments

Abuse Me Tab

   
#----------------------------------PLEASE NOTE---------------------------------#
#This file is the author's own work and represents their interpretation of the #
#song. You may only use this file for private study, scholarship, or research. #
#------------------------------------------------------------------------------#
From smclaren@escape.ca Sun May  4 11:09:03 1997
Date: Mon, 07 Apr 1997 22:48:22 -0500
From: Scott McLaren 
To: guitar@olga.net
Subject: TAB: abuse me by: silverchair

Song-Abuse Me
Band-silverchair
Album-Freak Show
Tabbed by Scott McLaren

*TUNING*
Dropped-D

KEY
/-slide up
\-slide down
PM-palm mute
p-pull off
_-hold note
#^(1/2)-bend up one half step
#^(1/2)#-bend up 1/2 step 

INTRO 
E|------------------------------------------------------------------|
B|------------------------------------------------------------------|
G|---------6---------------6---------------2-0-------------2--------|
D|-----0-----0---------0-----0----------0------0---------0---0------|
A|---7---7-----7-----7---7-----7-----3----3------3-----3-------3----|
D|-7-------------7---------------7\3-----------------3-----------3/-|

E|---------------------------------------------------|
B|---------------------------------------------------|
G|-------6---6-0-------------6-----------2---2-0-----|
D|---------0-----0---------0---0---------------------|
A|-----7-----------7-----7-------7-----3---3-----3---|
D|---7-----------------7-----------7\3-------------3-|


Verse  (Need to ask a question.....)
E|-0-0-0--0-0-0---0-0-0--0-0-0---0-0-0--0-0-0---0-0-0--0-0-0---0-0-0-|
B|-0-0-0--0-0-0---0-0-0--0-0-0---0-0-0--0-0-0---0-0-0--0-0-0---0-0-0-|
G|-2-2-2--4-4-4---2-2-2--4-4-4---2-2-2--4-4-4---2-2-2--4-4-4---4-4-6-|
D|-3-3-3--5-5-5---3-3-3--5-5-5---3-3-3--5-5-5---3-3-3--5-5-5---5-5/7-|
A|-3-3-3--5-5-5---3-3-3--5-5-5---3-3-3--5-5-5---3-3-3--5-5-5---5-5/7-|
D|-3-3-3--5-5-5---3-3-3--5-5-5---3-3-3--5-5-5---3-3-3--5-5-5---5-5/7-|


CHORUS 1 
E|-0-0-0-0-0-0-0-0-0-0-0-0-0-0-0-0---0-0-0-0-0-0-0-0-0-0-0-0-0-0-|        
B|-0-0-0-0-0-0-0-0-0-0-0-0-0-0-0-0---0-0-0-0-0-0-0-0-0-0-0-0-0-0-|   
G|-6-6-6-6-6-6-6-6-6-6-6-6-6-6-6-6---2-2-2-2-2-2-2-2-2-2-2-2-2-2-|  2x   
D|-7-7-7-7-7-7-7-7-7-7-7-7-7-7-7-7---3-3-3-3-3-3-3-3-3-3-3-3-3-3-|       
A|-7-7-7-7-7-7-7-7-7-7-7-7-7-7-7-7---3-3-3-3-3-3-3-3-3-3-3-3-3-3-|       
D|-7-7-7-7-7-7-7-7-7-7-7-7-7-7-7-7---3-3-3-3-3-3-3-3-3-3-3-3-3-3-|     
                                                                          
E|-------------|
B|-------------|
G|-------------|
D|--2--2-2-2-2-|
A|--2--2-2-2-2-|
D|--2--2-2-2-2-|
      PM_____


Verse  (Well, I don't think you like me.....)
E|-0-0-0--0-0-0---0-0-0--0-0-0---0-0-0--0-0-0---0-0-0--0-0-0---0-0-0-|
B|-0-0-0--0-0-0---0-0-0--0-0-0---0-0-0--0-0-0---0-0-0--0-0-0---0-0-0-|
G|-2-2-2--4-4-4---2-2-2--4-4-4---2-2-2--4-4-4---2-2-2--4-4-4---4-4-6-|
D|-3-3-3--5-5-5---3-3-3--5-5-5---3-3-3--5-5-5---3-3-3--5-5-5---5-5/7-|
A|-3-3-3--5-5-5---3-3-3--5-5-5---3-3-3--5-5-5---3-3-3--5-5-5---5-5/7-|
D|-3-3-3--5-5-5---3-3-3--5-5-5---3-3-3--5-5-5---3-3-3--5-5-5---5-5/7-|


CHORUS 1 
E|-0-0-0-0-0-0-0-0-0-0-0-0-0-0-0-0---0-0-0-0-0-0-0-0-0-0-0-0-0-0-|      
B|-0-0-0-0-0-0-0-0-0-0-0-0-0-0-0-0---0-0-0-0-0-0-0-0-0-0-0-0-0-0-| 
G|-6-6-6-6-6-6-6-6-6-6-6-6-6-6-6-6---2-2-2-2-2-2-2-2-2-2-2-2-2-2-|  4x   
D|-7-7-7-7-7-7-7-7-7-7-7-7-7-7-7-7---3-3-3-3-3-3-3-3-3-3-3-3-3-3-|        
A|-7-7-7-7-7-7-7-7-7-7-7-7-7-7-7-7---3-3-3-3-3-3-3-3-3-3-3-3-3-3-|        
D|-7-7-7-7-7-7-7-7-7-7-7-7-7-7-7-7---3-3-3-3-3-3-3-3-3-3-3-3-3-3-|       

E|---------------------------------|
B|---------------------------------|
G|---------------------------------|
D|-2-2-2-2-2-2-2-2-2-2-2-2-2-2-2-2-|
A|-2-2-2-2-2-2-2-2-2-2-2-2-2-2-2-2-|
D|-2-2-2-2-2-2-2-2-2-2-2-2-2-2-2-2-|
   PM_____________________________

[ Tab from: http://www.guitartabs.cc/tabs/s/silverchair/abuse_me_tab_ver_3.html ]
BRIDGE 1  (Throw the sailors overboard....)
E|-------------------------------------|
G|-------------------------------------|  
B|-------------------------------------|   2x
D|-7--7-7-7-3-3---0--0-0-0-0-0-0-0-0-0-|
A|-7--7-7-7-3-3---0--0-0-0-0-0-0-0-0-0-|
D|-7--7-7-7-3-3---0--0-0-0-0-0-0-0-0-0-|

E|----------------------------------------------------|
G|----------------------------------------------------|
B|----------------------------------------------------|
D|-7--7-7-7-3-3---0--0-0-0-0-0-0-0-0-0--7--7-7-7-3--0-|
A|-7--7-7-7-3-3---0--0-0-0-0-0-0-0-0-0--7--7-7-7-3--0-|
D|-7--7-7-7-3-3---0--0-0-0-0-0-0-0-0-0--7--7-7-7-3--0-|

E|-----------------------------------------------------------|
B|-----------------------------------------------------------|
G|-----------------------------------------------------------|
D|-0-0-0-0-0-7-7-7-7-7--3-3-0--3-3-0--3-3-0---0-0-0-0-0-0-0--|
A|-0-0-0-0-0-7-7-7-7-7--3-3-0--3-3-0--3-3-0---0-0-0-0-0-0-0--|
D|-0-0-0-0-0-7-7-7-7-7--3-3-0--3-3-0--3-3-0---0-0-0-0-0-0-0--|
     PM_____       


CHORUS 1 (2 guitars)
E|-0-0-0-0-0-0-0-0-0-0-0-0-0-0-0-0---0-0-0-0-0-0-0-0-0-0-0-0-0-0-|      
B|-0-0-0-0-0-0-0-0-0-0-0-0-0-0-0-0---0-0-0-0-0-0-0-0-0-0-0-0-0-0-|   
G|-6-6-6-6-6-6-6-6-6-6-6-6-6-6-6-6---2-2-2-2-2-2-2-2-2-2-2-2-2-2-|  4x   
D|-7-7-7-7-7-7-7-7-7-7-7-7-7-7-7-7---3-3-3-3-3-3-3-3-3-3-3-3-3-3-|        
A|-7-7-7-7-7-7-7-7-7-7-7-7-7-7-7-7---3-3-3-3-3-3-3-3-3-3-3-3-3-3-|        
D|-7-7-7-7-7-7-7-7-7-7-7-7-7-7-7-7---3-3-3-3-3-3-3-3-3-3-3-3-3-3-|       

E|---------------------------------|
B|---------------------------------|
G|---------------------------------|
D|-2-2-2-2-2-2-2-2-2-2-2-2-2-2-2-2-|
A|-2-2-2-2-2-2-2-2-2-2-2-2-2-2-2-2-|
D|-2-2-2-2-2-2-2-2-2-2-2-2-2-2-2-2-|
   PM_____________________________
                                  
Guitar 2
E|---------------------------------------------------------------------|
B|---------------------------------------------------------------------|
G|---------------------------------------------------------------------|
D|-----7-----------7---------7--------------3---------3-----3-----3----|
A|---7---7---7---7---7-----7---7---7-7/---3---3---3-------3---3-----3--|
D|-7-------7---7---------7-------7------3-------3---3---3-------3------|

SOLO         __________
E|-12-12^(1/2)--12--12\---------------------------------------------------|
B|----------------------1--1/6--5--5/6--6/8--10-10\--8/12--13/14-13----13-|
G|------------------------------------------------------------------------|
D|------------------------------------------------------------------------|
A|------------------------------------------------------------------------|
D|------------------------------------------------------------------------|

E|------------------------------------9-10-9--10-12-12p10\9-10------------|
B|13--12^(1/2)12-12\10--10\5--8--8-10-------------------------------------|
G|-------------------------------------------------------------7-7\5-4-2\1|
D|------------------------------------------------------------------------|
A|------------------------------------------------------------------------|
D|------------------------------------------------------------------------|

BRIDGE 2  (Throw the sailors overbaord.....)
E|-------------------------------------|
G|-------------------------------------|  
B|-------------------------------------|   6x
D|-7--7-7-7-3-3---0--0-0-0-0-0-0-0-0-0-|
A|-7--7-7-7-3-3---0--0-0-0-0-0-0-0-0-0-|
D|-7--7-7-7-3-3---0--0-0-0-0-0-0-0-0-0-|

E|---------------------------------------------------------------|
B|---------------------------------------------------------------|
G|---------------------------------------------------------------|
D|-0-0-0-0-0-3-3-0--0-0-0-0-3-3-0--3-3-0--3-3-0---0-0-0-0-0-0-0--|
A|-0-0-0-0-0-3-3-0--0-0-0-0-3-3-0--3-3-0--3-3-0---0-0-0-0-0-0-0--|
D|-0-0-0-0-0-3-3-0--0-0-0-0-3-3-0--3-3-0--3-3-0---0-0-0-0-0-0-0--|
     PM_____        PM_____

OUTRO 
E|----------------------------------------------------|
B|----------------------------------------------------|
G|---------6----------------6-----------2---2--0------|
D|-----0-----0----------0-----0-----------0-----------|
A|---7---7-----7------7---------7-----3-----------3---|
D|-7--------------(7)-----7-------7-3---------------3-|


=ScOtT McLaReN================
 EFnet IRC: koRn|
=smclaren@escape.ca===========
Comments