Silverchair - Abuse Me Chords & Tabs

 

Abuse Me Chords & Tabs

Silverchair Chords & Tabs

Version: 2 Type: Tab 0 ratings
1 star 2 stars 3 stars 4 stars 5 stars
comments

Abuse Me Tab

#----------------------------------PLEASE NOTE---------------------------------#
#This file is the author's own work and represents their interpretation of the #
#song. You may only use this file for private study, scholarship, or research. #
#------------------------------------------------------------------------------#
From vermills@cfw.com Sun May  4 11:09:15 1997
Date: Sun, 13 Apr 1997 22:59:22 -0700
From: Stephen T Vermillion 
To: guitar@olga.net
Subject: tabs. silverchair "Abuse Me"

"Abuse Me" by Silverchair. 
music by Daniel Johns
transcribed by Matt Vermillion (vermlls@cfw.com)

This is a really cool song off Silverchairs new album and it's really
easy to play
[ Tab from: http://www.guitartabs.cc/tabs/s/silverchair/abuse_me_tab_ver_2.html ]
CHORDS USED: |-5-|  |-1-| |-3-| |-0-| |-0-| |-0-|
             |-5-|  |-1-| |-3-| |-0-| |-0-| |-0-|
             |-6-|  |-2-| |-4-| |-5-| |-0-| |-0-|
             |-7-|  |-3-| |-5-| |-5-| |-5-| |-7-|
             |-7-|  |-3-| |-5-| |-3-| |-5-| |-7-|
             |-5-|  |-1-| |-3-| |-0-| |-3-| |-5-|
_________________________________________________________________________________
Intro: use these chords and listen to the cd its really simple
|-5-| |-1-|
|-5-| |-1-|
|-6-| |-2-|---The Intro is all picking so listen to the cd---
|-7-| |-3-|
|-7-| |-3-|
|-5-| |-1-|
_________________________________________________________________________________
riff 1
e-3-3-3-3-\-5---3-3-3-3-\-5-| 
B-3-3-3-3-\-5---3-3-3-3-\-5-|
G-4-4-4-4-\-6---4-4-4-4-\-6-|
D-5-5-5-5-\-7---5-5-5-5-\-7-|
A-5-5-5-5-\-7---5-5-5-5-\-7-|
E-3-3-3-3-\-5---3-3-3-3-\-5-|
____________________________________________________________________________________
chorus
e-5-5-5-5-5-5-5-5-5-\-1-1-1-1-1-1-1-1-\-5-5-5-5-5-5-5-5-\-1-1-1-1-1-1-1-1-1-|
B-5-5-5-5-5-5-5-5-5-\-1-1-1-1-1-1-1-1-\-5-5-5-5-5-5-5-5-\-1-1-1-1-1-1-1-1-1-|
G-6-6-6-6-6-6-6-6-6-\-2-2-2-2-2-2-2-2-\-6-6-6-6-6-6-6-6-\-2-2-2-2-2-2-2-2-2-|
D-7-7-7-7-7-7-7-7-7-\-3-3-3-3-3-3-3-3-\-7-7-7-7-7-7-7-7-\-3-3-3-3-3-3-3-3-3-|
A-7-7-7-7-7-7-7-7-7-\-3-3-3-3-3-3-3-3-\-7-7-7-7-7-7-7-7-\-3-3-3-3-3-3-3-3-3-|
E-5-5-5-5-5-5-5-5-5-\-1-1-1-1-1-1-1-1-\-5-5-5-5-5-5-5-5-\-1-1-1-1-1-1-1-1-1-|
____________________________________________________________________________________
riff2 ("throw the sailors overboard"part as near as i can figure if i am
wrong please EMAIL me with corrections, all the rest is right
though).vermlls@cfw.com
e-0-0-0--0-0-0--000000-|
B-0-0-0--0-0-0--000000-|
G-5-5-5--0-0-0--000000-|
D-5-5-5--5-5-5--777777-|
A-3-3-3--5-5-5--777777-|
E-0-0-0--3-3-3--555555-|

Comments