Silverchair - Abuse Me Chords & Tabs

 

Abuse Me Chords & Tabs

Silverchair Chords & Tabs

Version: 2 Type: Bass Tab 0 ratings
1 star 2 stars 3 stars 4 stars 5 stars
comments

Abuse Me Bass Tab

abuse me
silverchair

intro/outro
g---4/5--4-2---4/5--4--2---4/6---4/5-4-2--------
d------------3---------------------------3------
a-----------------------------------------------
e------------------------------------------3-3-3

verse
a-----------------------------0--0--0-0--0-0-0-0--0-0-0-0-----------
e--3/5--5----3-3-3--6---5-5/7-----------------------------3-3-3-3-3-

a------------------------------------------
e-3-3--3-3-3-5--3-3-3-3-3-2---2-2-2-2-3-3-3
[ Tab from: http://www.guitartabs.cc/tabs/s/silverchair/abuse_me_btab_ver_2.html ]
chorus riff
a-0--0--0-0--0--0-0--0-0-0-0------------------------------
e------------------------------3--3--3-3--3---3-3--3-3-3-5

e-3--3--3-3-3-2--2-2-2-2-2-2-2-2-2-2-2-2-2-2-0

"throw the sailors overboard..."
a-0--0--0-3-------------------------------------------------
e------------0-0-0-0-0-0-0-0--0--0-0-0-0-3-3-0-0-0-0---3-3-0

a-3-3---------------------------0--0--0-0--0---0-0--0-0-0-0
e-----0--3-3-0--0-0-0-0-0-0-0-0----------------------------

e-3--3--3-3--3-3-3-3--3-3-3-5

guitar solo
a-0-0--0-0-0--0-0--0-0-0-0--------------------------
e--------------------------3--3--3-3--3-3-3--3-3-3-5

e-3--3--3-3-3-2---2-2-2-2-2-2-2-2-2-2-2-2-2-2-0

And there it is!  Enjoy,

Megan Skrypichayko  skrypr@cadvision.com


Comments