Silverbullet - Reluctant Farewell Chords & Tabs

 

Reluctant Farewell Chords & Tabs

Silverbullet Chords & Tabs

Version: 1 Type: Tab 0 ratings
1 star 2 stars 3 stars 4 stars 5 stars
comments

Reluctant Farewell Tab

   
Title: “I don’t want to say goodbye”                               RO= Let the last note ring out 
Artist: SilverBullet                                                           (P)=pause 
Tabbed by: $ilverBullet

         Standard tuning: E A D G B E
Intro
x----------------------------------------------------------------------------------------------------------
x----------------------------------------------------------------------------------------------------------
----4----6----2----4----6----2----4----6----2--------------------------------------------------------------
----4----6----2----4----6----2----4----6----2----(RO)------------------------------------------------------
----2----4----0----2----4----0----2----4----0--------------------------------------------------------------
x----------------------------------------------------------------------------------------------------------
[ Tab from: http://www.guitartabs.cc/tabs/s/silverbullet/reluctant_farewell_tab.html ]
Verse (repeat 2x’s)
x----------------------------------------------------------------------------------------------------------
x----------------------------------------------------------------------------------------------------------
----9----4----6----2----6----4----2----2----2----2---------------------------------------------------------
----9----4----6----2----6----4----2----2----2----2---------------------------------------------------------
----7----2----4----0----4----2----0----0----0----0---------------------------------------------------------
x----------------------------------------------------------------------------------------------------------

Chorus                 in the end section, there are pauses after the note following the 9 9 7.
x----------------------------------------------------------------------------------------------------------
x----------------------------------------------------------------------------------------------------------
----9----4----(P)----6----2-----Repeat 2x’s, then end with—9----4----9----6----9----2----------------------
----9----4-----------6--- 2--------------------------------9----4----9----6----9----2(R0)------------------
----7----2-----------4--- 0--------------------------------7----2----7----4----7----0----------------------
x----------------------------------------------------------------------------------------------------------

Verse 1:
Ever since the first day I met you 
I knew you were perfect
Ever since I saw your smile
I knew you would be worth it

Chorus:
I don’t want (p) to say goodbye (repeat 2x’s)
I just want (p)
To stay with you (p)
Forever (R0)

Verse 2:
Ever since the first time I met you
I had problems sleeping
Had your face inside my head 
all day and every night

Chorus

Verse 3:
Ever since I felt your touch 
I’ve felt like I’ve been dreaming
When I find I’m without you
I just feel like screaming

Chorus

I hope everyone can understand how to play this song! This is an awesome song! 
If it seems totally screwed over, or your having problems with it, e-mail me at jgowers2001@yahoo.com! L8er!
Comments