Silverbullet - Grey Skies Chords & Tabs

 

Grey Skies Chords & Tabs

Silverbullet Chords & Tabs

Version: 1 Type: Tab 0 ratings
1 star 2 stars 3 stars 4 stars 5 stars
comments

Grey Skies Tab

   
Title: “Grey Skies”                                                            FP= pick! Do not strum!
Artist: SilverBullet                                                            (P)=pause one beat                                                                      
Tabbed by: $ilverBullet

        Standard tuning: E A D G B E 
 
(quiet) Intro (FP)
x----------------------------------------------------------------------------------------------------------
x----------------------------------------------------------------------------------------------------------
----7----9----5--------------------------------------------------------------------------------------------
----7----9----5-----------------------------------------Repeat these 3x’s----------------------------------
----5----7----3--------------------------------------------------------------------------------------------
x----------------------------------------------------------------------------------------------------------

Verse
Strum each of the intro notes about 8 times (except the last note, strum that one 3 times). This is a fast song. 
Repeat the notes four times through, but on the last time through, add a 9,9,7(the same strings as the 997 on the intro). 
[ Tab from: http://www.guitartabs.cc/tabs/s/silverbullet/grey_skies_tab.html ]
Chorus
x--------------------------------------|--------------------------------------------------------------------
x--------------------------------------|--------------------------------------------------------------------
----10----7----5----2----------------|--End with-----10----7----3----2----(P)---3----2----------------------
----10----7----5----2----------------|---------------10----7----3----2-----------3----2---------------------
----8-----5----3----0----------------|---------------8-----5----1----0-----------1----0---------------------
x-----------------------------------------------------------------------------------------------------------

Verse 1:
I’m getting sick of all these grey skies overhead, I’m gonna go insane
Feels like everything I do is covered with dread, I don’t know what to do
Will someone save me I’m so confused
Will someone come to my aid?

Chorus:
 I’m getting sick of all these grey skies
When will they all just go away?
Even after all these failed tries
Why can’t I succeed today?

Verse 2:
Feels like depression is sinking in too fast, afraid of drowning
Feels too much like my horrid past, don’t want to go back
Will someone help me try to understand
Why do I need your hand?

Chorus


I hope everyone can understand how to play this! It’s our band’s first song! 
If anything seems screwed over or your having problems, e-mail me at jgowers2001@yahoo.com! Peace out!
Comments