Silver - Riot 123 Gentleman Blues Chords & Tabs

 

Riot 123 Gentleman Blues Chords & Tabs

Silver Chords & Tabs

Version: 1 Type: Tab 0 ratings
1 star 2 stars 3 stars 4 stars 5 stars
comments

Riot 123 Gentleman Blues Tab

   
---------------------------------------------------------------------------------------------
			     Riot 123 / Gentleman's Blues - Silver
---------------------------------------------------------------------------------------------
Tabbed by: Tobias P.
Email: jesusforce@hotmail.com

Tuning: Standard

Intro / Vers1
e|-----------------------|4|------------------------|4|
B|-----------------------|T|------------------------|T|
G|-----------------------|I|--4---------------------|I|
D|--4-5-666666666666666--|M|--4-5-6666666666666666--|M|
A|--4-5-666666666666666--|E|--2-5-6666666666666666--|E|
E|--2-3-444444444444444--|S|----3-4444444444444444--|S|

Chorus
e|--------------------------------|2|--------------------------------|
B|--------------------------------|T|--------------------------------|
G|--4---4-4-4-4-7--7---7-7-7------|I|--6---6-6-6------9---9-9-9------|
D|--4-4-4-4-4-4-7--7-7-7-7-7-7-7--|M|--6-6-6-6-6-6-6--9-9-9-9-9-9-9--|
A|--2-4-2-2-2-2-5--5-7-5-5-5-7-7--|E|--4-6-4-4-4-6-6--7-9-7-7-7-9-9--|
E|----2--------------5-------5-5--|S|----4-------4-4----7-------7-7--|

e|---------------------------------------------------------------------------------|
B|---------------------------------------------------------------------------------|
G|--6---6-6-6----------------------------------------------------------------------|
D|--6-6-6-6-6-6-6--9-9-9-9-9-9-9-9-1111111111111111-12131313-12131313-12131313-12--|
A|--4-6-4-4-4-6-6--7-7-7-7-7-7-7-7-9-9-9-9-9-9-9-9--10111111—10111111-10111111-10--|
E|----4-------4-4------------------------------------------------------------------|

Vers2
e|------------------------|4|------------------------|2|------------------------|2| 
B|------------------------|T|------------------------|T|------------------------|T|
G|--4---------------------|I|--6---------------------|I|--4---------------------|I|
D|--4-5-6666666666666666--|M|--6-7-8888888888888888--|M|--4-5-6666666666666666--|M|
A|--2-5-6666666666666666--|E|--4-7-8888888888888888--|E|--2-5-6666666666666666--|E|
E|----3-4444444444444444--|S|----5-6666666666666666--|S|----3-4444444444444444--|S|

Chorus
e|--------------------------------|2|--------------------------------|
B|--------------------------------|T|--------------------------------|
G|--4---4-4-4-4-7--7---7-7-7------|I|--6---6-6-6------9---9-9-9------|
D|--4-4-4-4-4-4-7--7-7-7-7-7-7-7--|M|--6-6-6-6-6-6-6--9-9-9-9-9-9-9--|
A|--2-4-2-2-2-2-5--5-7-5-5-5-7-7--|E|--4-6-4-4-4-6-6--7-9-7-7-7-9-9--|
E|----2--------------5-------5-5--|S|----4-------4-4----7-------7-7--|

e|---------------------------------------------------------------------------------|
B|---------------------------------------------------------------------------------|
G|--6---6-6-6----------------------------------------------------------------------|
D|--6-6-6-6-6-6-6--9-9-9-9-9-9-9-9-1111111111111111-12131313-12131313-12131313-12--|
A|--4-6-4-4-4-6-6--7-7-7-7-7-7-7-7-9-9-9-9-9-9-9-9--10111111—10111111-10111111-10--|
E|----4-------4-4------------------------------------------------------------------|
[ Tab from: http://www.guitartabs.cc/tabs/s/silver/riot_123_gentleman_blues_tab.html ]
Bridge/Vers3
e|---------------------|4|------------------------|
B|---------------------|T|------------------------|
G|--8-6-5-4-4444-6666--|I|--4---------------------|
D|--8-6-5-4-4444-6666--|M|--4-5-6666666666666666--|
A|--6-4-3-2-2222-4444--|E|--2-5-6666666666666666--|
E|---------------------|S|----3-4444444444444444--|

Chorus 
*Rhythm
e|--------------------------------|2|--------------------------------|
B|--------------------------------|T|--------------------------------|
G|--4---4-4-4-4-7--7---7-7-7------|I|--6---6-6-6------9---9-9-9------|
D|--4-4-4-4-4-4-7--7-7-7-7-7-7-7--|M|--6-6-6-6-6-6-6--9-9-9-9-9-9-9--|
A|--2-4-2-2-2-2-5--5-7-5-5-5-7-7--|E|--4-6-4-4-4-6-6--7-9-7-7-7-9-9--|
E|----2--------------5-------5-5--|S|----4-------4-4----7-------7-7--|

e|---------------------------------------------------------------------------------|
B|---------------------------------------------------------------------------------|
G|--6---6-6-6----------------------------------------------------------------------|
D|--6-6-6-6-6-6-6--9-9-9-9-9-9-9-9-1111111111111111-12131313-12131313-12131313-12--|
A|--4-6-4-4-4-6-6--7-7-7-7-7-7-7-7-9-9-9-9-9-9-9-9--10111111—10111111-10111111-10--|
E|----4-------4-4------------------------------------------------------------------|

*Lead
e|-----------------------------------------|2|
B|----------7-------------------10---------|T|
G|--7b8-6-8---8-6-6--10b11-9-11----11-9-9--|I|
D|-----------------------------------------|M|
A|-----------------------------------------|E|
E|-----------------------------------------|S|

e|-----------------------------------------------------------------------------------------------------|
B|------------9--------------------12--------------------9---------------------------------------------|
G|--8b10-8-10---10-8-8—-11b13-11-13--13-11-11—-8b10-8-10---10-8-8—-11b13-13-13131315-15-1515151513-13--|
D|-----------------------------------------------------------------------------------------------------|
A|-----------------------------------------------------------------------------------------------------|
E|-----------------------------------------------------------------------------------------------------|

Outro 
e|--------------------------------|2|--------------------------------|
B|--------------------------------|T|--------------------------------|
G|--4---4-4-4-4-7--7---7-7-7------|I|--6---6-6-6------9---9-9-9------|
D|--4-4-4-4-4-4-7--7-7-7-7-7-7-7--|M|--6-6-6-6-6-6-6--9-9-9-9-9-9-9--|
A|--2-4-2-2-2-2-5--5-7-5-5-5-7-7--|E|--4-6-4-4-4-6-6--7-9-7-7-7-9-9--|
E|----2--------------5-------5-5--|S|----4-------4-4----7-------7-7--|

e|--------------------------------------------------------|
B|--------------------------------------------------------|
G|--6---6-6-6----------------------------------------4----|
D|--6-6-6-6-6-6-6--9-9-9-9-9-9-9-9-1111111111111111--4-6--|
A|--4-6-4-4-4-6-6--7-7-7-7-7-7-7-7-9-9-9-9-9-9-9-9---2—6--|
E|----4-------4-4--------------------------------------4--|



°sorry for the missing lead parts
this is my first tab, I hope you like it



| #  sharp
| b  bend
| r  release
| /  slide up
| \  slide down
| h  hammer-on
| p  pull-off
| ~  vibrato
| +  harmonic
| x  Mute note
================================================================================================
Comments