Silkstone - Beautiful Chords & Tabs

 

Beautiful Chords & Tabs

Silkstone Chords & Tabs

Version: 1 Type: Tab 0 ratings
1 star 2 stars 3 stars 4 stars 5 stars
comments

Beautiful Tab

   
Beautiful - Silkstone

G(5)  = 3-2-0-0-3-3-|
Dsus4 = x-x-0-2-3-3-|
Em7   = 0-2-2-0-3-3-|
Cadd9 = x-3-2-0-3-3-|

Riff 1:
    G(5)        Dsus4       Em7         Cadd9
e --3---3---3---3---3---3---3---3---3---3---3---3---|
B ---3---3---3---3---3---3---3---3---3---3---3---3--|
G ----0---0-------0---0-------0---0-------0---0-----|
D --------------------------------------------------|
A --------------------------------------------------|
E --------------------------------------------------|

Riff 2:
    G(5)        Dsus4              Em7               Cadd9
e -------3---------------------------------7---------------------|
B ----------3--------7---8-7------------8----8-------------------|
G ----4-----------7---7-----7--------9---9-----9---9\7--7--5--7--|
D --5-----------7-------------7-7/9-------------9---------------|
A ---------------------------------------------------------------|
E ---------------------------------------------------------------|

Riff 3:
    G(5)        Dsus4              Em7               Cadd9
e -------3---------------------------------7---------3-----------|
B ----------3--------7---8-7------------8----8-------3-----------|
G ----4-----------7---7-----7--------9---9-----9-----0-----------|
D --5-----------7-------------7-7/9-------------9---2-----------|
A ---------------------------------------------------3-----------|
E ---------------------------------------------------x-----------|

Riff 4:
e --7--7-7-7\5--5----------------0------|
B --8--8-8-8\7-7p5-5\3--3-3-3/5---5----|
G --7--7-7-7----7---7\4--4-4-4h5-----5--|
D --------------------------------------|

(riff 1)
|G(5)  |Dsus4 |Em7   |Cadd9 |
(riff 1)
|G(5)  |Dsus4 |Em7   |Cadd9 |
(riff 1 + 2)
|G(5)  |Dsus4 |Em7   |Cadd9 |
(riff 1 + 3)
|G(5)  |Dsus4 |Em7   |Cadd9 |
[ Tab from: http://www.guitartabs.cc/tabs/s/silkstone/beautiful_tab.html ]
  G(5) Dsus4              Em7               Cadd9
I know what I want, but I don't know how to get
    G(5)          Dsus4      Em7        Cadd9
The things that I need is, a woman to expense
   G(5) Dsus4            Em7                Cadd9
It's so hard to see, the difference between you and me

(riff 4)

We went to a parking place were the moon was so bright
Got ourselves to bed and you turned of the light

Somebody shining light from above
We went for a picnic to a place filled with love

       G(5) Dsus4  Em7    Cadd9
'cause you  are so beautiful
G(5) Dsus4  Em7    Dsus4
you  are so beautiful
      G(5)  Dsus4  Em7    Cadd9
In my mind
      G(5)  Dsus4  Em7    Cadd9

Day got to an end and I was all alone
Left me here all by myself with no money and no home

       G(5) Dsus4  Em7    Cadd9
'cause you  are so beautiful
G(5) Dsus4  Em7    Dsus4
you  are so beautiful
      G(5)  Dsus4  Em7    Cadd9
In my mind
      G(5)  Dsus4  Em7    Cadd9

G(5) Dsus4  Em7    Cadd9
you  are so beautiful
G(5) Dsus4  Em7    Cadd9
you  are so beautiful
G(5) Dsus4  Em7    Cadd9
you  are so beautiful
G(5) Dsus4  Em7    Cadd9
you  are so beautiful

G(5) Dsus4  Em7    Cadd9
you  are so beautiful
G(5) Dsus4  Em7    Cadd9
you  are so beautiful

You are so beautiful
You are so beautiful

G(5) Dsus4  Em7   Cadd9
You are sooooooooooooooooo
G(5) Dsus4  Em7   Dsus4
ooooooooooooooo   Beautiful in my mind

|G(5)  |Dsus4 | (10x)
|G(5)~~|~~~~~~|
Comments