Sikth - Wait For Something Wild Chords & Tabs

 

Wait For Something Wild Chords & Tabs

Sikth Chords & Tabs

Version: 1 Type: Bass Tab

Wait For Something Wild Bass Tab

   
Title: wait_for_something_wild






                                          Q   Q   H         H       E E E E
                     G|-----------------|-----------------|-----------------|
                     D|-----------------|-----------------|-----------------|
5-string Bass Guitar A|-----------------|-----------------|-----------------|
                     E|-----------------|-----------------|---------------0+|
                     B|-----------------|-2---------------|-----------2-2---|






   E E E E E E E E   E E E E H                           E E E E E E Q
G|-----------4-0---|---0-------------|-----------------|-----------------|
D|---------------1-|-----1-----------|-----------------|-----------------|
A|-------1+1-------|-2-----2---------|-----------------|---0---0+0-0-----|
E|-0---------------|-----------------|-----------------|-----------------|
B|---2-2-----------|-----------------|-----------------|-----------------|






                     E E E E Q   E E                     E E E E E E Q
G|-----------------|-----------------|-----------------|-----------------|
D|-----------------|-----------------|-----------------|-----------------|
A|-----------------|-----------------|-----------------|-----------------|
E|-----------------|---0---0-------0-|-----------------|-----------------|
B|-----------------|-----------------|-----------------|---2---2+2-2-----|






                     E E E E E E E E   E E E E E E E E   SSE E E E E E E
G|-----------------|-----------------|-----------------|-----------------|
D|-----------------|-----------------|-----------------|-----------------|
A|-----------------|-------0---------|-0---------0---0+|-0-0---------0---|
E|-----------------|-2-1-------2-1---|-----2-1---------|-------2-1-------|
B|-----------------|-----2---------2-|---------2-------|-----------2-----|






   E E E E E E E E   E E E E E E E E   E E Q   Q   E E   E E E E H
G|-----------------|-----------------|-----------------|-----------------|
D|-----------------|-----------------|-----------------|-----------------|
A|-0---------0---0-|-------0---------|-0---------------|-------0---------|
E|-----2-1---------|-2-1-------2-1---|-----0-----------|-2-1-------------|
B|---------2-------|-----2---------2-|---2-----4---3-2-|-----2-----------|






   E E E E E E E E   E E E E E E E E   SSE E E E E E E   E E E E E E E E
G|-----------------|-----------------|-----------------|-----------------|
D|-----------------|-----------------|-----------------|-----------------|
A|-------0---------|-0---------0---0+|-0-0---------0---|-0---------0---0-|
E|-2-1-------2-1---|-----2-1---------|-------2-1-------|-----2-1---------|
B|-----2---------2-|---------2-------|-----------2-----|---------2-------|






   E E E E E E E E   E E E E E E E E   E E Q   Q   E E   E Q   E E E E E
G|-----------------|-----------------|-----------------|-----------------|
D|-----------------|-----------------|-----------------|-----------------|
A|-------0---------|-0---------------|-----------------|-----------------|
E|-2-1-------2-1---|-------0-0-------|-0-3-0---------0-|-3-0---------2-2-|
B|-----2---------2-|---2-2-----2-2-2-|---------4---2---|-------4+4-2-----|






   E E E E E E E E   E E E E E E E E   E E E E E E E E   E E E E Q   Q
G|-----------------|-----------------|-----------------|-----------------|
D|-----------------|-----------------|-----------------|-----------------|
A|-----------------|-----------------|-----------------|-----------------|
E|-----2-2-----2-2-|-----2-2-----2-2-|-----2-2-----2-2-|-----2-2---------|
B|-2-2-----2-2-----|-2-2-----2-2-----|-2-2-----2-2-----|-2-2-----2-------|






                     E E E E E E E E   E E E E H         H       Q   E E
G|-----------------|-----------------|---4-0-----------|-----------------|
D|-----------------|-----------------|-------1---------|-----------------|
A|-----------------|---------------1+|-1---------------|-------------1---|
E|-----------------|-------0+0-------|-----------------|---------------0-|
B|-----------------|---2-2-----2-2---|-----------------|---------2-------|






   E Q   E E E E E   E E E E E E E E   E E E E Q   E E   E Q   E E E E E
G|-----------------|-----------------|---4-0-----------|-----------------|
D|---0-------------|---------------2+|-2-----1---------|---0-------------|
A|---------------1-|-1-----1+1-------|-------------1---|---------------1-|
E|-0-------2-2-2---|-----------------|---------------0-|-0-------2-2-2---|
B|-------2---------|---2-2-----2-2---|---------2-------|-------2---------|






   E E E E E E E E   E E E E E E E E   E E E E Q   E E   E Q   E E E E E
G|-----------------|---4-0-----0-----|-----------------|-----------------|
D|---------------2+|-2-----1-----1---|-----------------|---0-------------|
A|-1-----1+1-------|---------2-----2-|-------0-----1---|---------------1-|
E|-----------------|-----------------|-2-1-----------0-|-0-------2-2-2---|
B|---2-2-----2-2---|-----------------|-----2---2-------|-------2---------|






   E E E E E E E E   E E E E Q   E E   E Q   E E E E E   E E E E E E E E
G|-----------------|---4-0-----------|-----------------|-----------------|
D|---------------2+|-2-----1---------|---0-------------|---------------2+|
A|-1-----1+1-------|-------------1---|---------------1-|-1-----1+1-------|
E|-----------------|---------------0-|-0-------2-2-2---|-----------------|
B|---2-2-----2-2---|---------2-------|-------2---------|---2-2-----2-2---|






   E E E E E E E E   E E E E E E E E   E Q   E E Q   E   E Q   E E Q   E
G|---4-0-----0-----|-----------------|-----------------|-----------------|
D|-2-----1-----1---|-----------------|-----------------|-----------------|
A|---------2-----2-|-------0---------|-0-------0-------|---------0-------|
E|-----------------|-2-1-------2-1---|---1-------1-----|---1-------1-----|
B|-----------------|-----2---------2-|-------2-------2+|-2-----2-------2+|






   E Q   E E Q   E   E Q   E E Q   E   E Q   E E Q   E   E Q   E E Q   E
G|-----------------|-----------------|-----------------|-----------------|
D|-----------------|-----------------|-----------------|-----------------|
A|---------0-------|---------0-------|---------0-------|---------0-------|
E|---1-------1-----|---1-------1-----|---1-------1-----|---1-------1-----|
B|-2-----2-------2+|-2-----2-------2+|-2-----2-------2+|-2-----2-------2+|






   E Q   E E Q   E   E Q   E E Q   E   E E E E E E E E   E E E E E E E E
G|-----------------|-----------------|---------1-------|---------1-------|
D|-----------------|-----------------|-----3-----4-3---|-----3-----4-3---|
A|---------0-------|---------0-------|---4---4-------4-|---4---4-------4-|
E|---1-------1-----|---1-------1-----|-----------------|-----------------|
B|-2-----2-------2+|-2-----2-------2+|-2---------------|-----------------|






   E E E E E E E E   E Q.    H         H.          E E   H.          E E
G|-2-------1-------|-----------------|-----------------|-----------------|
D|-----3-----4-3---|-----------------|-----------------|---------------4+|
A|---4---4-------4-|-2-0+----0+------|-0+----------0-2+|-2+----------2---|
E|-----------------|-----------------|-----------------|-----------------|
B|-----------------|-----------------|-----------------|-----------------|






   Q.    E H
G|-----------------|-----------------|-----------------|-----------------|
D|-4---------------|-----------------|-----------------|-----------------|
A|-------2+2-------|-----------------|-----------------|-----------------|
E|-----------------|-----------------|-----------------|-----------------|
B|-----------------|-----------------|-----------------|-----------------|







G|-----------------|-----------------|-----------------|-----------------|
D|-----------------|-----------------|-----------------|-----------------|
A|-----------------|-----------------|-----------------|-----------------|
E|-----------------|-----------------|-----------------|-----------------|
B|-----------------|-----------------|-----------------|-----------------|







G|-----------------|-----------------|-----------------|-----------------|
D|-----------------|-----------------|-----------------|-----------------|
A|-----------------|-----------------|-----------------|-----------------|
E|-----------------|-----------------|-----------------|-----------------|
B|-----------------|-----------------|-----------------|-----------------|







G|-----------------|-----------------|-----------------|-----------------|
D|-----------------|-----------------|-----------------|-----------------|
A|-----------------|-----------------|-----------------|-----------------|
E|-----------------|-----------------|-----------------|-----------------|
B|-----------------|-----------------|-----------------|-----------------|






   Q   E E Q.    E   Q.    E E Q.      H.          E E   Q.    E E Q   E
G|-----------------|-----------------|-----------------|-----------------|
D|-----------------|-----------------|-----------------|-----------------|
A|-----------------|-----------------|-----------------|-----------------|
E|-------2+2-------|-----------------|-----------------|-----------------|
B|---------------2+|-2-----2+2-2+----|-2+----------2-2+|-2-----2+2-2---2+|






   H.          E E   Q.    E E Q   E   H.          E E   Q.    E E Q   E
G|-----------------|-----------------|-----------------|-----------------|
D|-----------------|-----------------|---------------2+|-2-----2+2-2---1+|
A|---------------0+|-0-----0+0-0---2+|-2+----------2---|-----------------|
E|-----------------|-----------------|-----------------|-----------------|
B|-2+----------2---|-----------------|-----------------|-----------------|






   Q.    E Q.    E   Q.    E E Q.      H.          E E   Q.    E E Q   E
G|-----------------|-----------------|-----------------|-----------------|
D|-1---------------|-----------------|-----------------|-----------------|
A|-----------------|-----------------|-----------------|-----------------|
E|-------2+2-------|-----------------|-----------------|-----------------|
B|---------------2+|-2-----2+2-2+----|-2+----------2-2+|-2-----2+2-2---2+|






   H.          E E   Q.    E E Q   E   H.          E E   H.          E E
G|-----------------|-----------------|-----------------|-----------------|
D|-----------------|-----------------|-----------------|-----------------|
A|-----------------|---------------0+|-0+----------0---|-----------------|
E|---------------4+|-4-----4+4-4-----|---------------2+|-2+----------2-0+|
B|-2+----------2---|-----------------|-----------------|-----------------|






   Q.    E Q.    E   E E E E E E E E   E E E E E E E E   E E E E E E E E
G|-----------------|---1-------1-----|---1-------1-----|---1-------1-----|
D|-----------------|-2-------2-------|-2-------2-------|-2-------2-------|
A|-------2+2-----4-|-----2-4-----2-4-|-----2-4-----2-4-|-----2-4-----2-4-|
E|-0---------------|-----------------|-----------------|-----------------|
B|-----------------|-----------------|-----------------|-----------------|






   E E E E E E E E   E E E E E E E E   E E E E E E E E   E E E E E E E E
G|---1-------1-----|---1-------1-----|---1-------1-----|---1-------1-----|
D|-2-------2-------|-2-------2-------|-2-------2-------|-2-------2-------|
A|-----2-4-----2-4-|-----2-4-----2-4-|-----2-4-----2-4-|-----2-4-----2-4-|
E|-----------------|-----------------|-----------------|-----------------|
B|-----------------|-----------------|-----------------|-----------------|






   E E E E E E E E   E E E E E E E E   E E E E E E E E   E E E E E E E E
G|---1-------1-----|---1-------1-----|---1-------1-----|-----------------|
D|-2-------2-------|-2-------2-------|-2-------2-------|-0-4-----0-4-----|
A|-----2-4-----2-4-|-----2-4-----2-4-|-----2-4-----0-2-|-----0-2-----0-2-|
E|-----------------|-----------------|-----------------|-----------------|
B|-----------------|-----------------|-----------------|-----------------|






   E E E E E E E E   E E E E E E E E   E E E E E E E E   E E E E E E E E
G|-----------------|-----------------|-----------------|---1-------1-----|
D|-0-4-----0-4-----|---2-------2-----|---2-------2-----|-2-------2-------|
A|-----0-2-------1-|-4-----1-4-----1-|-4-----1-4---2-4-|-----2-4-----2-4-|
E|-------------4---|-----4-------4---|-----4-----------|-----------------|
B|-----------------|-----------------|-----------------|-----------------|






   E E E E E E E E   E E E E E E E E   E E E E E E E E   E E E E E E E E
G|---1-------1-----|---1-------1-----|---1-------1-----|-----------------|
D|-2-------2-------|-2-------2-------|-2-------2-------|-0-4-----0-4-----|
A|-----2-4-----2-4-|-----2-4-----2-4-|-----2-4-----0-2-|-----0-2-----0-2-|
E|-----------------|-----------------|-----------------|-----------------|
B|-----------------|-----------------|-----------------|-----------------|






   E E E E E E E E   E E E E E E E E   E E E E E E E E   E E E E E E E E
G|-----------------|-----------------|-----------------|---1-------1-----|
D|-0-4-----0-4-----|---2-------2-----|---2-------2-----|-2-------2-------|
A|-----0-2-------1-|-4-----1-4-----1-|-4-----1-4---2-4-|-----2-4-----2-4-|
E|-------------4---|-----4-------4---|-----4-----------|-----------------|
B|-----------------|-----------------|-----------------|-----------------|





[ Tab from: http://www.guitartabs.cc/tabs/s/sikth/wait_for_something_wild_btab.html ]
   E E E E E E E E   E E E E E E E E   E E E E E E E E   E E E E E E E E
G|---1-------1-----|---1-------1-----|---1-------1-----|-----------------|
D|-2-------2-------|-2-------2-------|-2-------2-------|-0-4-----0-4-----|
A|-----2-4-----2-4-|-----2-4-----2-4-|-----2-4-----0-2-|-----0-2-----0-2-|
E|-----------------|-----------------|-----------------|-----------------|
B|-----------------|-----------------|-----------------|-----------------|






   E E E E E E E E   E E E E E E E E   E E E E E E E E   E E E E E E E E
G|-----------------|-----------------|-----------------|---1-------1-----|
D|-0-4-----0-4-----|---2-------2-----|---2-------2-----|-2-------2-------|
A|-----0-2-------1-|-4-----1-4-----1-|-4-----1-4---2-4-|-----2-4-----2-4-|
E|-------------4---|-----4-------4---|-----4-----------|-----------------|
B|-----------------|-----------------|-----------------|-----------------|






   E E E E E E E E   E E E E E E E E   E E E E E E E E   E E E E E E E E
G|---1-------1-----|---1-------1-----|---1-------1-----|-----------------|
D|-2-------2-------|-2-------2-------|-2-------2-------|-0-4-----0-4-----|
A|-----2-4-----2-4-|-----2-4-----2-4-|-----2-4-----0-2-|-----0-2-----0-2-|
E|-----------------|-----------------|-----------------|-----------------|
B|-----------------|-----------------|-----------------|-----------------|






   E E E E E E E E   E E E E E E E E   E E E E E E E E
G|-----------------|-----------------|-----------------|-----------------|
D|-0-4-----0-4-----|---2-------2-----|---2-------2-----|-----------------|
A|-----0-2-------1-|-4-----1-4-----1-|-4-----1-4---2---|-----------------|
E|-------------4---|-----4-------4---|-----4-----------|-----------------|
B|-----------------|-----------------|-----------------|-----------------|






   H       Q   E E   Q.    E E Q   E   H.          E E   Q.    E E Q   E
G|-----------------|-----------------|-----------------|-----------------|
D|-----------------|-----------------|-----------------|-----------------|
A|-----------------|-----------------|-----------------|-----------------|
E|-----------------|-----------------|-----------------|-----------------|
B|---------------2+|-2-----2+2-2---2+|-2+----------2-2+|-2-----2+2-2---2+|






   H.          E E   Q.    E E Q   E   H.          E E   Q.    E E Q   E
G|-----------------|-----------------|-----------------|-----------------|
D|-----------------|-----------------|-----------------|-----------------|
A|-----------------|-----------------|-----------------|-----------------|
E|---------------0+|-0-----0+0-0---0+|-0+----------0-0+|-0-----0+0-0---0+|
B|-2+----------2---|-----------------|-----------------|-----------------|






   Q.    E Q.    E   Q.    E E Q   E   H.          E E   Q.    E E Q   E
G|-----------------|-----------------|-----------------|-----------------|
D|-----------------|-----------------|-----------------|-----------------|
A|-----------------|-----------------|-----------------|-----------------|
E|-0-----2+2-------|-----------------|-----------------|-----------------|
B|---------------2+|-2-----2+2-2---2+|-2+----------2-2+|-2-----2+2-2---2+|






   H.          E E   Q.    E E Q   E   H.          E E   Q.    E E Q   E
G|-----------------|-----------------|-----------------|-----------------|
D|-----------------|-----------------|-----------------|-----------------|
A|-----------------|-----------------|-----------------|-----------------|
E|---------------0+|-0-----0+0-0---0+|-0+----------0-0+|-0-----0+0-0---0+|
B|-2+----------2---|-----------------|-----------------|-----------------|






   Q.    E Q.    E   Q.    E E Q   E   Q.    E Q.    E   Q.    E E Q   E
G|-----------------|-----------------|-----------------|-----------------|
D|-----------------|---------------1+|-1---------------|---------------1+|
A|-----------------|-----------4-----|-------4+4-------|-----------4-----|
E|-0-----2+2-------|-------4+4-------|-----------------|-------4+4-------|
B|---------------2+|-2---------------|---------------2+|-2---------------|






   Q.    E Q.    E   Q.    E E Q   E   Q.    E Q.    E   Q.    E E Q   E
G|-----------------|-----------------|-----------------|-----------------|
D|-1---------------|-----------2---1+|-1-----2+2-------|-----------------|
A|-------4+4-------|-------2+2-------|-----------------|---------------2+|
E|---------------0+|-0---------------|---------------0+|-0-----0+0-2-----|
B|-----------------|-----------------|-----------------|-----------------|






   E Q   E Q.    E   Q.    E E Q   E   Q.    E Q.    E   Q.    E E Q   E
G|-----------------|-----------------|-----------------|-----------------|
D|-----------------|---------------1+|-1---------------|---------------1+|
A|-2-4-------------|-----------4-----|-------4+4-------|-----------4-----|
E|-------2+2-------|-------4+4-------|-----------------|-------4+4-------|
B|---------------2+|-2---------------|---------------2+|-2---------------|






   Q.    E Q.    E   Q.    E E Q   E   Q.    E Q.    E   E Q   E E Q   E
G|-----------------|-----------------|-----------------|---4---9+9-8---4+|
D|-1---------------|-----------2---1+|-1-----2+2-------|-----------------|
A|-------4+4-------|-------2+2-------|-----------------|-----------------|
E|---------------0+|-0---------------|---------------0+|-0---------------|
B|-----------------|-----------------|-----------------|-----------------|






   E Q   E Q.    E   Q.    E E Q   E   Q.    E Q.    E   Q.    E E Q   E
G|-4---------------|-----------------|-----------------|-----------------|
D|---4---4+4-------|---------------1+|-1---------------|---------------1+|
A|-----------------|-----------4-----|-------4+4-------|-----------4-----|
E|-----------------|-------4+4-------|-----------------|-------4+4-------|
B|---------------2+|-2---------------|---------------2+|-2---------------|






   Q.    E Q.    E   Q.    E E Q   E   H.          E E   Q.    E E Q   E
G|-----------------|-----------------|-----------------|-----------------|
D|-1---------------|-----------------|---------------2+|-2-----2+2-2---1+|
A|-------4+4-----0+|-0-----0+0-0---2+|-2+----------2---|-----------------|
E|-----------------|-----------------|-----------------|-----------------|
B|-----------------|-----------------|-----------------|-----------------|






   Q.    E Q.    E   Q.    E E Q   E   Q.    E Q.    E   Q.    E E Q   E
G|-----------------|-----------------|-----------------|-----------------|
D|-1---------------|---------------1+|-1---------------|---------------1+|
A|-----------------|-----------4-----|-------4+4-------|-----------4-----|
E|-------2+2-------|-------4+4-------|-----------------|-------4+4-------|
B|---------------2+|-2---------------|---------------2+|-2---------------|






   Q.    E Q.    E   Q.    E E Q   E   H.          E E   H.          E E
G|-----------------|-----------------|-----------------|-----------------|
D|-1---------------|-----------------|-----------------|-----------------|
A|-------4+4-------|---------------0+|-0+----------0---|-----------------|
E|---------------4+|-4-----4+4-4-----|---------------2+|-2+----------2-0+|
B|-----------------|-----------------|-----------------|-----------------|






   Q.    E H         Q.    E E E E E   E E E E E E E E   E E E E E E E E
G|-----------------|-----------1-----|---1-------1-----|---1-------1-----|
D|-----------------|---------2-------|-2-------2-------|-2-------2-------|
A|-------2+2+------|-2-----4-----2-4-|-----2-4-----2-4-|-----2-4-----2-4-|
E|-0---------------|-----------------|-----------------|-----------------|
B|-----------------|-----------------|-----------------|-----------------|






   E E E E E E E E   E E E E H
G|---1-------1-----|---1-------------|-----------------|-----------------|
D|-2-------2-------|-2---------------|-----------------|-----------------|
A|-----2-4-----2-4-|-----2-----------|-----------------|-----------------|
E|-----------------|-----------------|-----------------|-----------------|
B|-----------------|-----------------|-----------------|-----------------|






   H       Q   E E   E E E E E E E E   E E E E E E Q     E E E E E E E E
G|-----------------|-----------------|-----------------|-----------------|
D|-----------------|-----------------|-----------------|-----------------|
A|-----------------|-----0---------0-|---------0---0---|-0---------0---0-|
E|---------------2-|-1-------2-1-----|---2-1-----------|-----2-1---------|
B|-----------------|---2---------2---|-------2---------|---------2-------|






   E E E E E E E E   E E E E E E E E   E Q   E E E E E   E E E E Q   E E
G|-----------------|-----------------|-----------------|-----------------|
D|-----------------|-----------------|-----------------|-----------------|
A|---------0---0---|-----0---------0-|-----------------|-----0-----------|
E|---2-1---------2-|-1-------2-1-----|---0-----------2-|-1-------------2-|
B|-------2---------|---2---------2---|-2-----4+4-3-2---|---2-------------|






   E E E E E E E E   E E E E E E Q     E E E E E E E E   E E E E E E E E
G|-----------------|-----------------|-----------------|-----------------|
D|-----------------|-----------------|-----------------|-----------------|
A|-----0---------0-|---------0---0---|-0---------0---0-|---------0---0---|
E|-1-------2-1-----|---2-1-----------|-----2-1---------|---2-1---------2-|
B|---2---------2---|-------2---------|---------2-------|-------2---------|






   E E E E E E E E   E E E E E E E E   E Q   E E E E E   Q   Q   E. SE E
G|-----------------|-----------------|-----------------|-----------------|
D|-----------------|-----------------|-----------------|-----------------|
A|-----0---------0-|-----------------|-----------------|-----------------|
E|-1-------2-1-----|-----0-0-------0-|-3-0---------0-3-|-0---------------|
B|---2---------2---|-2-2-----2-2-2---|-------4+4-2-----|-----4---2-----2-|






   E E E E E E E E   E E E E E E E E   E E E E E E E E   E E E E E E E E
G|-----------------|-----------------|-----------------|-----------------|
D|-----------------|-----------------|-----------------|-----------------|
A|-----------------|-----------------|-----------------|-----------------|
E|---2-2-----2-2---|---2-2-----2-2---|---2-2-----2-2---|---4-4-----4-4---|
B|-2-----2-2-----2-|-2-----2-2-----2-|-2-----2-2-----2-|-2-----2-2-----2-|






   E E E E E E E E   E E E E E E E E   E E E E E E E E   E E E E E E E E
G|-----------------|-----------------|-----------------|-----------------|
D|-----------------|-----------------|-----------------|-----------------|
A|-----------------|-----------------|-----------------|-----------------|
E|---2-2-----2-2---|---2-2-----2-2---|---2-2-----2-2---|---2-2-----2-2---|
B|-2-----2-2-----2-|-2-----2-2-----2-|-2-----2-2-----2-|-2-----2-2-----2-|






   E E E E E E E E   E E E E E E E E   E E Q   H
G|-----------------|-----------------|-----------------|-----------------|
D|-----------------|-----------------|-----------------|-----------------|
A|-----------------|-----------------|-----------------|-----------------|
E|---2-2-----2-2---|-----------------|-----------------|-----------------|
B|-2-----2-2-----2-|-2-----2-2-----2+|-2---------------|-----------------|






   H       Q   E E   E E E E Q   E E   E E E E E E Q     E E Q   E E E E
G|-----------------|-----------------|-----------------|---------4-0-----|
D|-----------------|---------0-------|-----------------|-----2-------1---|
A|-----------------|---1-------------|-----1-1-----1---|-----------------|
E|-----------------|-----0-0-------2-|-2-2-------------|-----------------|
B|---------------2+|-2-----------2---|---------2-2-----|-2-2-----------2+|






   E E E E Q   E E   E E E E E E Q     E E Q   E E E E   E E E E E E E E
G|-----------------|-----------------|---------4-0-----|-0---------------|
D|---------0-------|-----------------|-----2-------1---|---1-------------|
A|---1-------------|-----1-1-----1---|---------------2-|-----2-------0---|
E|-----0-0-------2-|-2-2-------------|-----------------|-------2-1-------|
B|-2-----------2---|---------2-2-----|-2-2-------------|-----------2---2+|






   E E E E Q   E E   E E E E E E Q     E E Q   E E E E   E E E E Q   E E
G|-----------------|-----------------|---------4-0-----|-----------------|
D|---------0-------|-----------------|-----2-------1---|---------0-------|
A|---1-------------|-----1-1-----1---|-----------------|---1-------------|
E|-----0-0-------2-|-2-2-------------|-----------------|-----0-0-------2-|
B|-2-----------2---|---------2-2-----|-2-2-----------2+|-2-----------2---|






   E E E E E E Q     E E Q   E E E E   E E E E E E E E   E E E E E E Q
G|-----------------|---------4-0-----|-0---------------|-----------------|
D|-----------------|-----2-------1---|---1-------------|-----------------|
A|-----1-1-----1---|---------------2-|-----2-----------|-----------------|
E|-2-2-------------|-----------------|-----------------|-----------------|
B|---------2-2-----|-2-2-------------|-------2-2-2-2-2-|-2-2-2-2+2-------|




What do all the symbols mean?
-----------------------------

W - whole note (semibreve)
H - half note (minim)
Q - quarter note (crotchet)
E - 8th note (quaver)
S - 16th note (semiquaver)
T - 32nd note (demisemi quaver)
X - 64th note (hemidemisemi quaver)
? - Fret number not defined (note out of range)

If a dot appears after one of the above then it means that the note is 1.5
times as long, e.g. Q. is 3 8th notes long. Two dots means 1.75 times long.

If a '+' sign appears after a note then that note is tied to (held on to) the
next note.

 ______
|1.    | - play bar/s under this sign first time only in repeats

|2.    | - play bar/s under this sign second time only in repeats

|1.3.  | - play bar/s under this sign first and third time only in repeats

||
||*
||*      - Repeat back to this sign
||

 ||
*||
*||      - Repeat from this sign
 ||


|-3-|    - Triplet