Sikth - Pussyfoot Chords & Tabs

 

Pussyfoot Chords & Tabs

Sikth Chords & Tabs

Version: 1 Type: Tab 0 ratings
1 star 2 stars 3 stars 4 stars 5 stars
comments

Pussyfoot Tab

   
Artist: Sikth
Title: Pussyfoot
Album: The Trees Are Dead & Dried Out, Wait For Something Wild 
Tabber: a_guy_called_richard@hotmail.com

Tuning: Drop D, down half a step (C# G# C# F# A# D#) Low to High


I couldnt match up the two guitar parts sorry. 

If anyone is interested in helping me tab out more sikth songs
then PM me. i love sikth but i simply cant find any tabs 
for them. i can play alot of their songs, but my ear isnt 
too great yet, so help would be brill. cheers.


Key:
* = Mute straight after


Intro:
Both Guitars:
|-0------0-0-0------0-0-0------0-0-0--------------|
|-0------0-0-0------0-0-0------0-0-0--------------|
|-3------3-3-3------3-3-2------3-3-3--------------|
|-2------2-2-2------2-2-2------2-2-2--------------|
|-2------2-2-2------2-2-2------2-2-2--------------|
|-2------2-2-2------2-2-2------2-2-2------22222p0-|
PM                                        .....




Next part:
Guitar 1:
|----------------------------------------------------|
|----------------------------------------------------|
|----------------------------------------------------|
|----------------------------------------------------|
|-2--0--2--0--2--0--2--0--2--0--202--0--2--0--2-0-2*-|
|-2--0--2--0--2--0--2--0--2--0--202--0--2--0--2-0-2*-|

Guitar 2:
|----------------------------------------------------|
|-5-----------5-----------5-------5-----------5---5*-|
|-x--------4--x--------4--x-------x--------4--x---x--|
|-2--------x--2--------x--2-------2--------x--2---2*-|
|----0--2--2-----0--2--2-----0--2----0--2--2----0----|
|----0--2--------0--2--------0--2----0--2-------0----|




Verse:
Guitar 1:
|------------------------------------------------------------------|
|------------------------------------------------------------------|
|------------------------------------------------------------------| x4
|------------------------------------------------------------------|
|------------------------------------------------------------------|
|-2--2--2--22222--2--2--2--22220--2-2-2--2--0--5--2--0--5--22222p0-|
PM         .....           ....                            ....

Guitar 2:
|------------------------------------------------------------------|
|------------------------------------------------------------------|
|------------------------------------------------------------------| x2
|------------------------------------------------------------------|
|------------------------------------------------------------------|
|-2--2--2--22222--2--2--2--22220--2-2-2--2--0--5--2--0--5--22222p0-|
PM         .....           ....                            ....

|------------------------------------------|
|----------------------------------5---6---|
|-3----2-3----2--2/5-3-------2-3-2---------| x2
|------------------------------------------|
|------------------------------------------|
|------------------------------------------|



Bridge:
Guitar 1:
|-----------------------------------------------------------------|
|-5-----------5-----------5-------5-----------5-------------------|
|-x--------4--x--------4--x-------x--------4--x-------------------|
|-2--------x--2--------x--2-------2--------x--2-------------------|
|----0--2--2-----0--2--2-----0--2----0--2--2----0-3-3-3-3-5-5-5-5-|
|----0--2--------0--2--------0--2----0--2-------0-3-3-3-3-5-5-5-5-|

Guitar 2:
|-0---0---0---0---0-0-0---0---0---0----------------|
|-5---6---5---6---5-6-5---5---6---5----------------|
|--------------------------------------------------|
|--------------------------------------------------|
|--------------------------------------------------|
|-----------------------------------3--/--15--\--3-|



Chorus thing:
Both guitars (im pretty sure the do that trill picking
business here, but i cant do it. this sounds fine):
|------------------------------------|
|------------------------------------|
|------------------------------------|
|------------------------------------|
|-0--0--0----------0--0--0--55556666-|
|-0--0--0-88887777-0--0--0-----------|
PM.  .  .          .  .  .

|---------------------------------------|
|---------------------------------------|
|---------------------------------------|
|---------------------------------------|
|-0--0--0-13x4-12x4-13x4-14x4-15x4-16x4-|
|-0--0--0-------------------------------|
PM.  .  .          

|------------------------------------|
|------------------------------------|
|------------------------------------|
|------------------------------------|
|-0--0--0----------0--0--0--55556666-|
|-0--0--0-88887777-0--0--0-----------|
PM.  .  .          .  .  .
[ Tab from: http://www.guitartabs.cc/tabs/s/sikth/pussyfoot_tab.html ]
|---------------------------------------|
|---------------------------------------|
|---------------------------------------|
|---------------------------------------|
|-0--0--0-13x4-12x4-13x4-14x4-15x4-16x4-|
|-0--0--0-------------------------------|
PM.  .  .         

MY GOD
|-----------------------------------|
|-----------------------------------|
|-----------------------------------|
|-----------------------------------|
|-0--0--0-55554444-0--0--0-55556666-|
|-0--0--0----------0--0--0----------|
PM.  .  .          .  .  .

|----------------------------------|
|----------------------------------|
|----------------------------------|
|----------------------------------|
|-0--0--0-555544445555666677778888-|
|-0--0--0--------------------------|
PM.  .  .      

|-------------------------------------|
|-------------------------------------|
|-------------------------------------|
|-------------------------------------|
|-0--0--0-12x4-11x4-0--0--0-12x4-13x4-|
|-0--0--0-----------0--0--0-----------|
PM.  .  .           .  .  .

|----------------------------------|
|----------------------------------|
|----------------------------------|
|----------------------------------|
|-0--0--0-555544445555666677778888-|
|-0--0--0--------------------------|
PM.  .  . ........................



Bit after the chorus:
Guitar 1:
|-0------0-0-0--------------------------|
|-0------0-0-0------5----------5--------|
|-3------3-3-3------x-------4--x--------|
|-2------2-2-2------2-------x--2--------|
|-2------2-2-2--------0--2--2-----0--2*-|
|-2------2-2-2--------0--2--------0--2*-|

Guitar 2:
|-0------0-0-0--------------------------|
|-0------0-0-0-----------------17----5*-|
|-3------3-3-3--------------16----16-x--|
|-2------2-2-2-----------14----------2*-|
|-2------2-2-2--------------------------|
|-2------2-2-2-------0-/----------------|


Then have guitar 1 pick scrape up and guitar 2 
pick scrape down


Then play the Verse again


Then play the Bridge



Interlude openeing:
Guitar one on its own:
|----------------------------0-----------------|
|---------9--9--9------9--9--0---------9--9--9-|
|---------8--8--8------8--8--0---------8--8--8-|
|-10-\--0-7--7--7----0-7--7--0-10-\--0-7--7--7-|
|-8--\--0------------0---------8--\--0---------|
|-8--\--0------------0---------8--\--0---------|
PM      .            .               .
                               ^ Guitar 2 joins
                                 here playing the
                                 same



Interlude:
Both Guitars:
|-------------------------------0---------------------------------0-|
|---------9--9--9---------9--9--0---------9--9--9---------9--9--9-0-|
|---------8--8--8---------8--8--0---------8--8--8---------8--8--8-0-| x2
|-10-\--0-7--7--7-------0-7--7----10-\--0-7--7--7-------0-7--7--7---|
|-8--\--0---------------0---------8--\--0---------------0-----------|
|-8--\--0---------------0---------8--\--0---------------0-----------|
PM      .               .               .               .

|---------------------------------0-|
|---------9--9--9-------<10>9--9--0-|
|---------8--8--8----<10>---8--8--0-| x4
|-10-\--0-7--7--7-<10>----0-7--7----|
|-8--\--0-----------------0---------|
|-8--\--0-----------------0---------|
PM      .                 .
The harmonics are played by guitar 2

|-------------------------------0---------------------0----0-|
|---------9--9--9---------9--9--0---------9--9--9-----0----0-|
|---------8--8--8---------8--8--0---------8--8--8------------|
|-10-\--0-7--7--7-------0-7--7----10-\--0-7--7--7--3-----5---|
|-8--\--0---------------0---------8--\--0----------3-----5---|
|-8--\--0---------------0---------8--\--0----------3-----5---|
PM      .               .               .              


Then play the Chorus thing.



Outro 1:
Both Guitars: This is played very fast, and sounds frikking awesome
|---------0-----------------------------15-14----------------------|
|---------0-----------------------------x--x-----------------------|
|---------0-----------------------------12-11-----6-4-----11-12-13-| x4
|------------5--0--0--0--0---------0--0---0-------4-5-----9--10-11-|
|-00000------5--0--0--0--0--2--/---0--0---0----00-4-5--00-9--10-11-|
|-00000------5--0--0--0--0--2--/---0--0---0----00-4-5--00-9--10-11-|
PM.....            .  .  .         .  .   .    ..      ..



Outro 2:
Both Guitars:
|-----------0------------------------0-----0--------------|
|-----------0------------------------0-----0--------------|
|-----------0------------------------0-----0--------------|
|-------0------5--0--1-1-1-------0-----5-0----5--0--1-1-1-|
|-0000000------5--0--1-1-1-0000000-----5-0----5--0--1-1-1-|
|-0000000------5--0--1-1-1-0000000-----5-0----5--0--1-1-1-|
PM......                   ......


End on:
|-------------|
|-------------|
|-------------|
|-------------|
|-0000000-----|
|-0000000-----|
PM.......

And thats it. Relaaaaax.


The Legend
Comments