Sikth - Pussyfoot Chords & Tabs

 

Pussyfoot Chords & Tabs

Sikth Chords & Tabs

Version: 1 Type: Bass Tab 0 ratings
1 star 2 stars 3 stars 4 stars 5 stars
comments

Pussyfoot Bass Tab

   
Intro - 0:02

Fb|---------------------------------------------------|
Db|---------------------------------------------------|
Gb|--------------------------------------/7777--------|
Db|-2-2-2-2-2-0-22-22-2-0-22-22-0-222-0--------0------|

Intro riff 2 - 0:08

Fb|-----------------------------------------------|
Db|-----------------------------------------------|
Gb|-----/7-------7---------7----------7-----------|
Db|-2/-0----0-2-0----0-2~-0-----0-2-0----0-2------|


0:14

Fb|-------------------------------------------------------|
Db|-------------------------------------------------------|
Gb|-------------------------------------------------------|x4
Db|-2-2-222-2-2-2-0-2-2-222-2-2-2-0-22-222-22-5-2-0-5-2-0-|



0:35

Fb|----------------------------------------------------------|
Db|----------------------------------------------------------|
Gb|-----/7-------7---------7-7-----------7-------------------|
Db|-2/-0----0-2-0----0-2~-0--------0-2-0---0-0-2----333-555--|


0:41

Fb|--------------------------------------------------------------|
Db|--------------------------------------------------------------|
Gb|-------------------------5h6p5-6h7p6--------------------------|
Db|-0-0-0-8h9p8-7h8p7-0-0-0--------------0-0-0--8h9p8-7h8p7------|



Fb|-------------------------------|
Db|---------------7h8p7-8h9p8-----|
Gb|-5h6p5-6h7p6-------------------|x4
Db|-------------------------------|


1:04

Fb|--------------------------------------|
Db|-------------------0-2----------------|
Gb|--------------------------------------|x1
Db|-0-2----0-2----0-2-----0-2--0-2-------|

1:09

Fb|-------------------------------------------------------|
Db|-------------------------------------------------------|
Gb|-------------------------------------------------------|x4
Db|-2-2-222-2-2-2-0-2-2-222-2-2-2-0-22-222-22-5-2-0-5-2-0-|

Pre Bridge:
[ Tab from: http://www.guitartabs.cc/tabs/s/sikth/pussyfoot_btab.html ]
         
1:32 

Fb|----------------------------------------------------|
Db|----------------------------------------------------|
Gb|-----/7-------7---------7-----------7---------------|
Db|-2/-0----0-2-0----0-2~-0-----0-2-0----0-2---0-2-0---|

Bridge

1:38
                       live, life..     Now..
Fb|-------------------|--------------|---------------------|
Db|-------------------|--------------|---------------------|
Gb|-------------------|--------------|---------------------|x10
Db|-0-8\---0-222-----|--------------|-0-8-0-222-0-222-----|

 
02:09

Fb|-------------------------------------------|
Db|-----3---5---------8h9p8-7h8p7-------------|
Gb|-------------------------------------------|
Db|--3---5------------------------------------|

Fb|--------------------------------------------------------------|
Db|--------------------------------------------------------------|
Gb|-------------------------5h6p5-6h7p6--------------------------|
Db|-0-0-0-8h9p8-7h8p7-0-0-0--------------0-0-0--8h9p8-7h8p7------|



Fb|-------------------------------|
Db|---------------7h8p7-8h9p8-----|
Gb|-5h6p5-6h7p6-------------------|x4
Db|-------------------------------|


       02:33
Fb|----------------------7----------------------------------|
Db|----------------------7-------xx-5-6--xx-9-10-11-12------|
Gb|--------------------------6-5----------------------------| x 4
Db|-000000000-87-0-0000-------------------------------------|
                  .pm.

2:55 
Fb|------------------------------------------------------|
Db|------------------------------------------------------|
Gb|------------------------------------------------------|x3
Db|-000000-80-00-111-00000000-80-0-80-0-111-00000000-----|


Fb|---------------------------------------------|
Db|---------------------------------------------|
Gb|---------------------------------------------| x 1
Db|--8-0-0-8-0-0-111-000000---------------------|
Comments