Sikth - Peep Show Chords & Tabs

 

Peep Show Chords & Tabs

Sikth Chords & Tabs

Version: 1 Type: Tab 0 ratings
1 star 2 stars 3 stars 4 stars 5 stars
comments

Peep Show Tab

   
tuning:c# f# b e g# c#
*ill work out the whole tab soon*
IT MAY LOOK WRONG BUT ONCE YOU GET THE RYTHM YOU'LL GET THE JIFF OF IT!
**I TABBED THIS FOR TAHLS...I STILL LOVE YOU WITH ALL MY HEART TAHLS**

INTRO:
|----------------------------------------------------------------------|
|----------------------------------------------------------------------|
|--3333-55-666--10--10--10--10--13-13-12--8-888-88-8-10-10-------------|
|--3333-xx-666--10--10--10--10--x--x--x---8-888-88-8-10-10-------------|3X
|--1111-33-444---8---8---8---8--11-11-10--6-666-66-6-8--8--------------|
|----------------------------------------------------------------------|

|---------------------------------------------------------|
|---------------------------------------------------------|
|--3333-3-3-555-6-6-6-------------------------------------|
|--3333-3-3-xxx-6-6-6--66666-4444-4-4---------------------|last part of 
|--1111-1-1-333-4-4-4--66666-4444-4-4---------------------|intro
|----------------------44444-2222-2-2---------------------|

VERSE:                  .find the rythm.
|--------|----------|-------------|---------|-------|-----------|
|--------|-1--------|-------------|---------|-------|-----------|
|----3---|---3------|----6--------|---------|-6-----|-----------|
|------3-|--------3-|--------3----|----4----|---4---|-----1-----|3X
|--1-----|-----4----|-4---------4-|-------4-|-----4-|---------1-|
|--------|----------|-------------|-4-------|-------|-1---------|

|--------|-------|-------|--------------------------------------|
|--------|-1-----|-------|--------------------------------------|
|----3---|----3--|-6-----|--------------------------------------|
|------3-|-----4-|---3---|-4-4----------------------------------|last part 
|--1-----|-------|-----4-|-4-4--4---3---4---6-------------------|of verse
|--------|-------|-------|-4-4----------------------------------|

CHROUS:
|----------------------------------------|
|----------------------------------------|
|--33333---66-6-6-6---66666---444--------|
|--33333---66-6-6-6---66666---444--------|4X
|--11111---44-4-4-4---66666---444--------|
|---------------------44444---222--------|
[ Tab from: http://www.guitartabs.cc/tabs/s/sikth/peep_show_tab.html ]
CHORUS 2:
|---------------------------------------------------------------|
|---------------------------------------------------------------|
|--3333-55-666--10--10--10--13-13-12--8-888-88-8-10-10----------|
|--3333-xx-666--10--10--10--x--x--x---8-888-88-8-10-10----------|4X
|--1111-33-444---8---8---8--11-11-10--6-666-66-6-8--8-----------|
|---------------------------------------------------------------|

short verse:
|--------|----------|----------|--------|-------|----------|
|--------|-1--------|----------|--------|-------|-1--------|
|----3---|----3-----|----6-----|--------|---3---|---3------|
|------3-|---------3|------3---|---4----|-----3-|--------3-|
|--1-----|------4---|-4------4-|------4-|-1-----|-----4----|
|--------|----------|----------|-4------|-------|----------|
"so fill you head with what you think you............

|----------------------------------------------------|
|----------------------------------------------------|
|----------------------------------------------------|
|--4-4-----------------------------------------------|the second guitar
|--4-4---44---3333---4444---6666---------------------|plays this.I havent
|--4-4-----------------------------------------------|worked out the first.
understand"

*I havent worked out the next bit yet..Will soon........

BRIDGE 1:
|----------------------------------------------------------------|
|----------------------------------------------------------------|
|-33-3-5-55-6-66-6-10-1010-8-88-1212-1212--13-1313-13-13-1313-13-|
|-33-3-x-xx-6-66-6-10-1010-8-88-1212-1212--13-1313-13-13-1313-13-|
|-11-1-3-33-4-44-4-8--8-8--6-66-1010-1010--11-1111-11-11-1111-11-|
|----------------------------------------------------------------|
"my ears grow tired of listening to this costant retial"

*And I havent worked out this little part before the next bridge.....

BRIDGE 2:
|----------------------------------------------------------------
|----------------------------------------------------------------
|-33-3-3-55-5-66-6-6-1010-10-88-8-8-88-8-1313-13-13-1515-15------
|-33-3-3-xx-x-66-6-6-1010-10-88-8-8-88-8-1313-13-13-1515-15------
|-11-1-1-33-3-44-4-4--88--8--66-6-6-66-6-1111-11-11-1313-13------
|----------------------------------------------------------------
"of this worthy course..of this worthy course..................

|----------------------------------------------------------------|
|----------------------------------------------------------------|
|-1313-13-13-15-15------13-12------------------------------------|
|-1313-13-13-15-15--66--13-12------------------------------------|
|-1111-11-11-13-13--66--11-10------------------------------------|
|-------------------44-------------------------------------------|

REPEAT THE VERSE:
REPEA THE CHORUS:
REPEAT THE CHORUS 2:

your  done and if you dun like it spend 8 hours of your time working it out.......
email me:pulseofamaggot666@hotmail.com

LOVE YOU TAHLS:(..JOEY
Comments