Sikth - Peep Show Chords & Tabs

 

Peep Show Chords & Tabs

Sikth Chords & Tabs

Version: 1 Type: Bass Tab 0 ratings
1 star 2 stars 3 stars 4 stars 5 stars
comments

Peep Show Bass Tab

                                                             
G||-----------------------------|-------------------------|
D||-----------------------------|--1---1---1------4-4-4-4-|
A||-------------1--1----2-2-2-2-|-------------------------|
E||--4-4-4-4-4------------------|-------------------------|
B||-----------------------------|-------------------------|


                                                         
---------------------------|----------------------------|
---------------------------|----------------------------|
---------------------------|----4--4-6--6------------1--|
---------------------------|--------------4-4-4-4-4-----|
--2--2--2----2-2-2-2-2---2-|----------------------------|


                                                     
--------------------------|-------------------------|
---------------1---1---1--|------4-4-4-4------------|
--1----2-2-2-2------------|-------------------------|
--------------------------|-------------------------|
--------------------------|--------------2--2--2----|


                                                           
----------------------------|-----------------------------|
-----------------------1--1-|-----------------------------|
------------------4--4------|-------------1--1----2-2-2-2-|
----------------------------|--4-4-4-4-4------------------|
--2-2-2-2-2---2-------------|-----------------------------|


                                                      
-------------------------|---------------------------|
--1---1---1------4-4-4-4-|---------------------------|
-------------------------|---------------------------|
-------------------------|---------------------------|
-------------------------|--2--2--2----2-2-2-2-2---2-|


                                                        
----------------------------|--------------------------|
----------------------------|---------1-1-1-1---1------|
----4--4-6--6---------------|-------4------------------|
--------------4-4-4-4-4--4--|--4--------------------2--|
----------------------------|--------------------------|


                                                                         
-------------------------|--------------------------|-------------------|
-------------------------|--------------------------|-------------------|
-------------------------|--------------1-1---------|-------------------|
-------------------------|--0-0-0-0-0-0-------------|--4----------------|
------2-2-2-2-2--2--2----|--------------------------|-------------------|


                                                                   
--------------------|------------------------|--------------------|
--------------------|------------------------|--------------------|
--2------2----------|------------------------|--------------------|
--------------------|----0--0--0--0---0---0--|-----------4--------|
--------------------|------------------------|--2-----------------|


                                                                  
--------------------|---------------------|----------------------|
--------------------|---------------------|----------------------|
----------2---2-----|---------------------|----------------------|
--------------------|---------------------|-------------4--------|
--------------------|------------2--2--2--|--2---2---2-----------|


                                                                   
---------------------|---------------------|----------------------|
---------------------|---------------------|----------------------|
----------2---2---2--|---------------------|----------------------|
---------------------|------------0--0--0--|--0---0---0-----------|
---------------------|---------------------|-------------2--------|


                                                                  
-------------------|--------------------|-------1--9--8---9------|
-------------------|--------------------|----2-------------------|
-------------------|--2------2----------|---------------------9--|
--4----------------|--------------------|------------------------|
-------------------|--------------------|------------------------|


                                                                              
------------------------|--------------------------|-------------------------|
------------------------|--------------------------|-------------------------|
------------------------|--------------------------|-------------------------|
------------------------|-------7-7-7-7-7---7---7--|-------------------------|
----------9-9-9-9-9--9--|--9-----------------------|------5-5-5-5-5--5--5----|


                                                           
----------------------------|-----------------------------|
----------------------------|-----------------------------|
----------------------------|---------------------2-2-2-2-|
----------------------------|--4-4-4-4-4--4--4------------|
--2-2-2-2-2---2---2--2-4--4-|-----------------------------|


                                                      
-------------------------|---------------------------|
-------------------------|---------------------------|
--2---2---2--------------|---------------------------|
-----------------0-0-0-0-|--0--0--0------------------|
-------------------------|-------------2-2-2-2-2---2-|


                                                        
----------------------------|--------------------------|
----------------------------|--------------------------|
----------------------------|-------2-2-2-2-2---2---2--|
--------------4-4-4-4-4--4--|--4-----------------------|
----2--2-4--4---------------|--------------------------|


                                                       
-------------------------|----------------------------|
-------------------------|----------------------------|
-------------------------|----------------------------|
------0-0-0-0-0--0--0----|----------------------------|
-------------------------|--2-2-2-2-2---2---2--2-4--4-|


                                                        
-----------------------------|-------------------------|
-----------------------------|-----------------2-2-2-2-|
---------------------2-2-2-2-|--2---2---2--------------|
--4-4-4-4-4--4--4------------|-------------------------|
-----------------------------|-------------------------|


                                                                                
---------------------------|------------------------|--------------------------|
--2--2--2------------------|------------------------|---------------1---1---1--|
-------------4-4--4-4-4-4--|---------------------1--|--1----2-2-2-2------------|
---------------------------|----------4-4-4-4-4-----|--------------------------|
---------------------------|------------------------|--------------------------|


                                                       
-------------------------|----------------------------|
------4-4-4-4------------|-----------------------1--1-|
-------------------------|------------------4--4------|
-------------------------|----------------------------|
--------------2--2--2----|--2-2-2-2-2---2-------------|


                                                        
-----------------------------|-------------------------|
-----------------------------|--1---1---1------4-4-4-4-|
-------------1--1----2-2-2-2-|-------------------------|
--4-4-4-4-4------------------|-------------------------|
-----------------------------|-------------------------|


                                                         
---------------------------|----------------------------|
---------------------------|----------------------------|
---------------------------|----4--4-6--6------------1--|
---------------------------|--------------4-4-4-4-4-----|
--2--2--2----2-2-2-2-2---2-|----------------------------|


                                                     
--------------------------|-------------------------|
---------------1---1---1--|------4-4-4-4------------|
--1----2-2-2-2------------|-------------------------|
--------------------------|-------------------------|
--------------------------|--------------2--2--2----|


                                                           
----------------------------|-----------------------------|
-----------------------1--1-|-----------------------1-1-1-|
------------------4--4------|---------------------4-------|
----------------------------|--4-4-4-4-4--4--4------------|
--2-2-2-2-2---2-------------|-----------------------------|


                                                                     
----------------------|--------1--9--8---9------|-------------------|
--1---1---------------|--2--2----------------9--|--6----------------|
-------------------2--|-------------------------|-------------------|
----------2-----------|-------------------------|-------------------|
----------------------|-------------------------|-------------------|


                                                                   
--------------------|------------------------|--------------------|
--------------------|------------------------|--------------------|
--------------------|------------------------|--------------------|
--7------7----------|------------------------|-----------4--------|
--------------------|----5--5--5--5---5---5--|--2-----------------|

[ Tab from: http://www.guitartabs.cc/tabs/s/sikth/peep_show_btab.html ]
                                                                        
---------------------|----------------------|--------------------------|
---------------------|----------------1-----|--2-----1-----------------|
----------2---2---2--|-------------2-----4--|-----4-----2-----1--2--4--|
---------------------|----------4-----------|--------------4-----------|
---------------------|----------------------|--------------------------|


                                                                                
-----------1----------|------------------|------------------|------------------|
--1--2--4-------------|------------------|------------------|------------------|
----------------------|------------------|------------------|------------------|
----------------------|------------------|------------------|------------------|
----------------------|------------------|------------------|------------------|


                                                                                
--------------------------|--------------------------|-------------------------|
--------------------------|----------1-1--1--1-------|-----------------4---4---|
-------------1-1--1--1-2--|---2---2------------4---4-|----4--4-4--4--4---------|
--4---4---4---------------|--------------------------|-------------------------|
--------------------------|--------------------------|-------------------------|


                                                              
-----0-0--0--0---------|------------------|------------------|
--4--------------------|------------------|------------------|
-----------------------|------------------|------------------|
-----------------------|------------------|------------------|
-----------------------|------------------|------------------|


                                                                            
---------------------|--------------------------|--------------------------|
-----------------4---|--------------------------|----------1-1--1--1-------|
--------------4------|-------------1-1--1--1-2--|---2---2------------4---4-|
------------2--------|--4---4---4---------------|--------------------------|
---------------------|--------------------------|--------------------------|


                                                                                
-------------------------|-----0-0--0--0------------|--------------------------|
-----------------4---4---|--4-----------------------|-----------------------1--|
----4--4-4--4--4---------|--------------------------|--2-2--2--2---------------|
-------------------------|---------------4---4---4--|------------1---1---1-----|
-------------------------|--------------------------|--------------------------|


                                                                              
-------------------|------------------|------------------|-------------------|
-------------------|------------------|------------------|-------------------|
----4--------------|------------------|------------------|----------------3--|
-------------------|------------------|------------------|-------------------|
-------------------|------------------|------------------|-------------------|


                                                             
-------------------|-------------------|--------------------|
-------------------|----------------1--|--------3-----------|
-------------------|-------------------|--------------------|
-------------------|-------------------|-----------------2--|
----------------2--|-------------------|--------------------|


                                                               
-------------------|-------------------|----------------------|
-------------------|-------------------|----------------------|
-------------------|--------2----------|----------------------|
--------4----------|-------------------|----------0--0--0--0--|
-------------------|-------------------|----------------------|


                                                              
----------------------|-------------------|------------------|
----------------------|-------------------|------------------|
----------------------|----------------2--|------------------|
---0---0-----------4--|-------------------|------------------|
----------2-----------|-------------------|------------------|


                                                                
------------------------|-------------------|------------------|
------------------------|-------------------|------------------|
------------------------|----------------2--|------------------|
--0--0--0--0------0--4--|-------------------|------------------|
------------------------|-------------------|------------------|


                                                                
-----1--9--8---9--------|------------------|-------------------|
--2---------------------|------------------|-------------------|
-------------------9----|------------------|-------------------|
------------------------|------------------|----------------4--|
------------------------|------------------|-------------------|


                                                       
--------------------------|--------------------1------|
-----1-----2-----1--------|-----------1--2--4---------|
--2-----4-----4-----2-----|--1--2--4------------------|
-----------------------4--|-----------------------4-4-|
--------------------------|---------------------------|


                                                       
---------1------------------|-------------------------|
----------------------------|-------------------------|
-----------------2-2-2-2-2--|---2---2-----------------|
--4-4-4-----4---------------|--------------0-0-0-0-0--|
----------------------------|-------------------------|


                                                         
--------------------------|-----------------------------|
--------------------------|-------1--1------------------|
--------------------------|--4--4-----------------------|
--0--0--------------------|------------4-4-4-4-4--4--4--|
----------2-2-2-2-2---2---|-----------------------------|


                                                      
-------------------------|---------------------------|
-------------------------|---------------------------|
----2-2-2-2-2---2---2----|---------------------------|
-------------------------|----0-0-0-0-0--0--0--------|
-------------------------|-----------------------2-2-|


                                                          
----------------------------|----------------------------|
-------------------1--1-----|----------------------------|
--------------4--4----------|-----------------2-2-2-2-2--|
------------------------4-4-|--4-4-4--4--4---------------|
--2-2-2---2-----------------|----------------------------|


                                                     
-------------------------|--------------------------|
-------------------------|--------------------------|
---2---2-----------------|--------------------------|
--------------0-0-0-0-0--|--0--0--------------------|
-------------------------|----------2-2-2-2-2---2---|


                                                        
-----------------------------|-------------------------|
-------1--1------------------|-------------------------|
--4--4-----------------------|----2-2-2-2-2---2---2----|
------------4-4-4-4-4--4--4--|-------------------------|
-----------------------------|-------------------------|


                                                     
---------------------------|------------------------|
---------------------------|------------------------|
---------------------------|------------------------|
----0-0-0-0-0--0--0--------|--------------------4-4-|
-----------------------2-2-|--2-2-2---2-------------|


                                                       
----------------------------|-------------------------|
-------------------------1--|---1---1------4-4-4-4----|
---------1--1----2-2-2-2----|-------------------------|
--4-4-4---------------------|-------------------------|
----------------------------|----------------------2--|


                                                         
--------------------------|-----------------------------|
--------------------------|-------1--1------------------|
--------------------------|--4--4-----------------1--1--|
--------------------------|------------4-4-4-4-4--------|
--2--2----2-2-2-2-2---2---|-----------------------------|


                                                      
-------------------------|---------------------------|
------------1---1---1----|----4-4-4-4----------------|
----2-2-2-2--------------|---------------------------|
-------------------------|---------------------------|
-------------------------|------------2--2--2----2-2-|


                                                          
----------------------------|----------------------------|
-------------------1--1-----|-------------------------1--|
--------------4--4----------|---------1--1----2-2-2-2----|
------------------------4-4-|--4-4-4---------------------|
--2-2-2---2-----------------|----------------------------|


                                                     
-------------------------|--------------------------|
---1---1------4-4-4-4----|--------------------------|
-------------------------|--------------------------|
-------------------------|--------------------------|
----------------------2--|--2--2----2-2-2-2-2---2---|


                                                                                
-----------------------------|-------------------------|--------------1--9--8--|
-------1--1------------------|------1-1-1-1---1--------|-----------2-----------|
--4--4-----------------------|----4--------------------|------2----------------|
------------4-4-4-4-4--4--4--|--------------------2----|-----------------------|
-----------------------------|-------------------------|-----------------------|


                      
---9----------------
-------9------------
--------------------
--------------------
--------------------
Comments