Sikth - Hold My Finger Chords & Tabs

 

Hold My Finger Chords & Tabs

Sikth Chords & Tabs

Version: 1 Type: Bass Tab 0 ratings
1 star 2 stars 3 stars 4 stars 5 stars
comments

Hold My Finger Bass Tab

   
Intro slap riff (0.00 to 0.10)
F#|--x-------x-------x-------x-------x---x-----|
C#|--------------------------------------------|
G#|--------------------------------------------| (x3)(open,hammer pluck riff)
C#|----x--x----x--x----x--x----x--x---x-x-x-x--|
     P L  T  P L  T  P L  T  P L  T  PL TPL T  

F#|--x-------x-------x-------x-----------|
C#|--------------------------------------|
G#|--------------------------------------| 
C#|----x--x----x--x----x--x-----1----1---|
     P L  T  P L  T  P L  T  P   


(0.11 to 0.18)
F#|-----------------------------|------------------------|
C#|-----------------------------|------------------------|
G#|-----------------------------|------------------------|
C#|-2--22222-2--2-22222-2--0----|-2-22222-2--2--2//14-0--|

(0.19 to 0.25)
F#|--------------------------------------|
C#|--------------------------------------|
G#|--------------------------------------|
C#|-2-22-2-22-2-22-2-22-5-55555-0-00-000-|

F#|-------------------------------|
C#|-------------------------------|
G#|-------------------------------|
C#|-2-22-2-22-2-22-2-22-5-55555-0-|


(0.26 to 0.34)
F#|--------------------------------------------------------------------------|
C#|----------------------------------------------5-----5------X---X---5P0----|
G#|--------------------------------------------------------------------------|
C#|-2-3-4-4-4-4-44-4-4-4-4--2-3-4-4-4-4-44--2/-5x---X-X-----X--X---X---------|
                                            T  TT P T TP    T PT  PT  P
(0.35 to 0.49)
F#|-----------------------------|-----------------------------------------------|
C#|-----------------------------|-----------------------------------------------|
G#|-----------------------------|-----------------------------------------------| (x2)
C#|-2--22222-2--2-22222-2--0----|-2-22222-2--2--2//(14)(14)(14)(14)(14)(14)-0---|

(0.50 to 1.05)
F#|--------------------------------------|
C#|--------------------------------------|
G#|--------------------------------------| (x3)
C#|-2-22-2-22-2-22-2-22-5-55555-0-00-000-|

F#|-------------------------------|
C#|-------------------------------|
G#|-------------------------------|
C#|-2-22-2-22-2-22-2-22-5-55555-0-|

(1.06 to 1.12)
F#|-----------------------------------------|
C#|-----------------------------------------|
G#|-----------------------------------------|
C#|-3-4-4-4-4-44-4-4-4-4--2-3-4-4-4-4-44--0-|

(1.14 to 1.19)
F#|-------------------------------|
C#|-------------------------------|
G#|-------------------------------| (x3)
C#|-3/////---15\---3/////4---|

(1.23 to 1.27)
F#|--x-------x-------x-------x-------x---x-----|
C#|--------------------------------------------|
G#|--------------------------------------------| 
C#|----x--x----x--x----x--x----x--x---x-x-x-x--|
     P L  T  P L  T  P L  T  P L  T  PL TPL T  
[ Tab from: http://www.guitartabs.cc/tabs/s/sikth/hold_my_finger_btab.html ]
F#|--x-------x-------x-------x-------0~~--|
C#|---------------------------------------|
G#|---------------------------------------| 
C#|----x--x----x--x----x--x----x--x-------|
     P L  T  P L  T  P L  T  P L  T  P  


(1.28 to 1.42)
F#|-----------------|
C#|-----------------|
G#|-----------------| 
C#|-2////14\2--|


(1.43 to 1.58)
F#|------------------------------------------------|
C#|------5-----------------------------------------|
G#|--------5---------------------------------------| 
C#|-5~~------5~-----2///14-14\---2///14-14---|

F#|---------------------------------------------------|
C#|---------------------------------------------------|
G#|-------1-0-1--3-1-0--------------------------------| 
C#|-5~~-----------------2///14-14\---2///14-14--|


(1.59 to 2.33)
F#|------------------------------------------------------------|
C#|------------------------------------------------------------|
G#|------------------------------------------------------------| 
C#|-5///15--15--5///17-17----2///14-14--2///14-14--|

F#|------------------------------------8----8---------8----8------|
C#|----------------------------------8--------8-----8--------8----|
G#|--------------------------------6------6-------6------6--------| 
C#|-5///17--17--5///17-17-----------------------------------|

F#|--------8----8---------8----8------|
C#|------8--------8-----8--------8----|
G#|----6------6-------6------6--------| (x10)
C#|-----------------------------------|


(2.34 to 2.45)
F#|----------12-----12------------14-----14----------8----8---------8----8-----|
C#|-------12-----------12------14-----------14-----8--------8-----8--------8---|
G#|----10-------10----------12--------12---------6------6-------6------6-------| 
C#|----------------------------------------------------------------------------|

F#|----------12-----12-------------------14------|
C#|-------12-----------12-------------14---------|
G#|----10-------10----------12-12-12--------12---| 
C#|----------------------------------------------|

(2.47)
F#|-------|
C#|-------|
G#|-------| 
C#|--0----|
   

(2.52 to 2.59)
F#|-----------------------------------------------|
C#|-----------------------------------------------|
G#|-----------------------------------------------|
C#|-4-----2-3-4-4-4-4-44-4-4-4-4--2-3-4-4-4-4-44--|


(3.00 to 3.03)
F#|-x----x----x----x---------|
C#|--------------------------|
G#|--------------------------|
C#|---xx---xx---xx---xx---x--|

F#|--x--x--x--x---------0--|
C#|------------------------|
G#|------------------------| (very fast machine gun pluck, open, hammer technique)
C#|---xx-xx-xx-xx--0-------| 
     PLTPLTPLTPLT  T    P


outro riff
(3.04 to 3.44)

F#|------------------------------0-------|
C#|--------------------------------------|
G#|--------------------------------------| (x8)
C#|-2-2-2--22--2---2-2-2--22--2----2-----|
    T T T  TT  T   T T T  TT  T  P T
Comments