Sik - Welcome To Hell Chords & Tabs

 

Welcome To Hell Chords & Tabs

Sik Chords & Tabs

Version: 1 Type: Tab 0 ratings
1 star 2 stars 3 stars 4 stars 5 stars
comments

Welcome To Hell Tab

   
Standard Tuning: EADGBe
Tabber: Timmy Rasmussen, guitarist of SIK

KEY:
h=hammer-on
p=pull-off
/=slide
b=bend

  (INTRO)
e|----------------------|
B|----------------------|
G|----8-7---------------|  x8
D|--------8-7-----------|
A|0-0---------8-7-------|
E|----------------------|

e|----------------------------------|
B|----------------------------------|
G|----------------------------------|  x2
D|------------------------3-5-------|
A|0-0-0-0-0-0-0-0-0-0-0-0-3-5-------|
E|------------------------1-3-------|

e|----------------------------------|
B|----------------------------------|
G|2-2-2-2-2-2-2-2-2-2-2-2-----------|  x2
D|2-2-2-2-2-2-2-2-2-2-2-2-3-5-------|
A|0-0-0-0-0-0-0-0-0-0-0-0-3-5-------|
E|------------------------1-3-------|

e|-------------------------------------------------------------------------|
B|-------------------------------------------------------------------------|
G|2-2-2-2-2-2-2-2-2-2-2-2-2-2-2-2------------------------------------------|  x4
D|2-2-2-2-2-2-2-2-2-2-2-2-2-2-2-2-5-5-5-5-5-5-5-5-------------3-2----------|
A|0-0-0-0-0-0-0-0-0-0-0-0-0-0-0-0-5-5-5-5-5-5-5-5-----3-2------------------|
E|--------------------------------3-3-3-3-3-3-3-3-3-2-----3-2--------------|
THE LAST TIME YOU DO THIS BEND THE LAST "2"--------------------------------|
                                           ARROW POINTING UP TO IT

  (PRE-VERSE 1)
e|----------------------------------------------------------------|
B|----------------------------------------------------------------|
G|------------7-------------5-------------4-3---------------------|
D|------------7-------------5-------------4---5-3-----------------|
A|------------5-------------3-------------2-------5-4-3-----------|
E|0-0-0-0-0-0---0-0-0-0-0-0---0-0-0-0-0-0---------------5-3-------|

  (PRE-VERSE 2)
e|--------------------------------------------------------------|
B|--------------------------------------------------------------|
G|------------7-------------5-------------4-------------7-------|
D|------------7-------------5-------------4-5h7p5---5-----------|
A|------------5-------------3-------------2-------7---7---------|
E|0-0-0-0-0-0---0-0-0-0-0-0---0-0-0-0-0-0-----------------------|

BACK TO PRE-VERSE 1

  (PRE-VERSE 3)
e|------------------------------------------|-------------------------|
B|------------------------------------------|-------------------------|
G|------------7-------------5-------------4-|-3---------------------x3|
D|------------7-------------5-------------4-|---5-3-------------------|
A|------------5-------------3-------------2-|-------5-4-3-------------|
E|0-0-0-0-0-0---0-0-0-0-0-0---0-0-0-0-0-0---|-------------5-3---------|

       (VERSE)
e|----|-----------------|
B|----|-----------------|
G|----|-----------------|  x4
D|2-2-|-2-5-7-8-3-------|
A|2-2-|-2-5-7-8-3-------|
E|0-0-|-0-3-5-6-1-------|

  (PRE-CHORUS)
e|----------------------------------------------------------------------|
B|----------------------------------------------------------------------|
G|----------------------------------------------------------------------|  x2
D|2-2-2-2-2-2-2-2-2-2-2-2-2-2-2-2-5-5-5-5-5-5-5-5-7-7-7-7-3-3-3-3-------|
A|2-2-2-2-2-2-2-2-2-2-2-2-2-2-2-2-5-5-5-5-5-5-5-5-7-7-7-7-3-3-3-3-------|
E|0-0-0-0-0-0-0-0-0-0-0-0-0-0-0-0-3-3-3-3-3-3-3-3-5-5-5-5-1-1-1-1-------|
LAST TIME GO TO THE e AND B STRING AND PLAY 12 ON THE e STRING AND 11 ON
THE B STRING AT THE VERY END OF THE PRE-CHOURUS

BACK TO VERSE
NOW PLAY PRE-CHORUS x4 BECAUSE IT NOW TURNS INTO THE CHORUS AND STILL DO THAT LITTLE THING AT THE END

  (PRE-SOLO)
e|------------------------------------|
B|------------------------------------|
G|------------------------------------|  x4
D|5-----------------------------------|
A|5-----------------------------------|
E|3-0-0-0-0-0-0-0-0-0-0-0-0-0-0-------|

e|-------------------------------------------------------------------------|
B|----------5-5/7-7h9p7---7h9p7---7h9p7---7h9p7---7h9p7---7h9p7---7h9p7----|
G|5-5h7p5---------------9-------9-------9-------9-------9-------9-------9b-|
D|--------7----------------------------------------------------------------|
A|-------------------------------------------------------------------------|
E|-------------------------------------------------------------------------|
[ Tab from: http://www.guitartabs.cc/tabs/s/sik/welcome_to_hell_tab.html ]
e|----------------------------------------------------7h9-9/12-12h15-12h15-|
B|------------------------7h9-7h9-----------------7h9----------------------|
G|7h9-----------------7h9---------7h9---------7h9--------------------------|
D|----7h9---------7h9-----------------7h9-7h9------------------------------|
A|--------7h9-7h9----------------------------------------------------------|
E|-------------------------------------------------------------------------|

e|12h15-12h15-12h15-12h15-12h15-12h15-12h15-12h15-12h15-12h15-12h15-12h15--|
B|-------------------------------------------------------------------------|
G|-------------------------------------------------------------------------|
D|-------------------------------------------------------------------------|
A|-------------------------------------------------------------------------|
E|-------------------------------------------------------------------------|

e|17b----------------------------------------------------------------------|
B|----15-14-12-12h15p12----12h15p12----12h15p12----12h15p12----12h15p12----|
G|----------------------15----------15----------15----------15----------15-|
D|-------------------------------------------------------------------------|
A|-------------------------------------------------------------------------|
E|-------------------------------------------------------------------------|

e|---------12h15p12----12h15p12----12h15p12-------15-12-15b----------------|
B|15-14-12----------15----------15----------15-15-----------15-14-12-22p19-|
G|-------------------------------------------------------------------------|
D|-------------------------------------------------------------------------|
A|-------------------------------------------------------------------------|
E|-------------------------------------------------------------------------|

e|------------------------------------------------------------------------|
B|21p18-20p17-19p16-18p15-17p14-16p13-15p12-13h15-------------------------|
G|------------------------------------------------13h15-------------13h15-|
D|------------------------------------------------------13h15-13h15-------|
A|------------------------------------------------------------------------|
E|------------------------------------------------------------------------|

e|------13h15-13h15-13h15-13h15-13h15-13h15-13h15-13h15-13h15-14h16-14h16-|
B|13h15-------------------------------------------------------------------|
G|------------------------------------------------------------------------|
D|------------------------------------------------------------------------|
A|------------------------------------------------------------------------|
E|------------------------------------------------------------------------|

e|14h16-14h16-14h16-14h16-14h16-14h16-15h17-15h17-15h17-15h17-15h17-15h17-|
B|------------------------------------------------------------------------|
G|------------------------------------------------------------------------|
D|------------------------------------------------------------------------|
A|------------------------------------------------------------------------|
E|------------------------------------------------------------------------|

e|15h17-15h17-16h18-16h18-16h18-16h18-16h18-16h18-16h18-16h18-17h19p17----|
B|---------------------------------------------------------------------19-|
G|------------------------------------------------------------------------|
D|------------------------------------------------------------------------|
A|------------------------------------------------------------------------|
E|------------------------------------------------------------------------|

e|17h19p17----17h19p17----17h19p17----17h19p17----17h19p17----17h19p17-----|
B|---------19----------19----------19----------19----------19----------19b-|
G|-------------------------------------------------------------------------|
D|-------------------------------------------------------------------------|
A|-------------------------------------------------------------------------|
E|-------------------------------------------------------------------------|

PLAY (PRE-VERSE 1)
PLAY (PRE-VERSE 2)
BACK TO (PRE-VERSE 1)
PLAY (PRE-VERSE 3)
PLAY (VERSE)
PLAY (PRE CHORUS)
BACK TO (VERSE)
PLAY CHORUS

e|--------------------------------------------------|
B|--------------------------------------------------|
G|--------------------------------------------------|  x4
D|2-----2-5-----5---7-----7-8-----8-3-----3-2-------|
A|2---2---5---5---5-7---7---8---8---3---3---2-------|
E|0-0-----3-3-------5-5-----6-6-----1-1-----0-------|

PLAY (PRE-VERSE 1)
PLAY (PRE-VERSE 2)
BACK TO (PRE-VERSE 1)
PLAY (PRE-VERSE 3)
Comments