Sigma - Heavens Chords & Tabs

 

Heavens Chords & Tabs

Sigma Chords & Tabs

Version: 1 Type: Tab 1 rating
1 star 2 stars 3 stars 4 stars 5 stars
comments

Heavens Tab

   
Band: Sigma
Song: Heavens
Hey this song is 100% correct and it is a cool song so here u go and plz rate.

First the bass and drums come in with a beat

Intro
e|--------|-------
B|--------|-------
G|--------|-------
D|-5------|-----3-
A|-5------|-----3-
E|-3------|-----1- x2

Verse
e|--------|-------
B|--------|-------
G|--------|-------
D|-555555-|-----3-
A|-555555-|-----3-
E|-333333-|-----1- x4
(play 553 14 times)

Chorus
e|----x-----x----x----|
B|----x-----x----x----|
G|----x-777-x----x----|
D|-99-x-777-x-77-x555-|
A|-99-x-555-x-77-x555-|
E|-77-x-----x-55-x333-| x4

Verse
e|--------|-------
B|--------|-------
G|--------|-------
D|-555555-|-----3-
A|-555555-|-----3-
E|-333333-|-----1- x4
(play 553 14 times)
[ Tab from: http://www.guitartabs.cc/tabs/s/sigma/heavens_tab.html ]
Chorus
e|----x-----x----x----|
B|----x-----x----x----|
G|----x-777-x----x----|
D|-99-x-777-x-77-x555-|
A|-99-x-555-x-77-x555-|
E|-77-x-----x-55-x333-| x4

Verse
e|--------|-------
B|--------|-------
G|--------|-------
D|-555555-|-----3-
A|-555555-|-----3-
E|-333333-|-----1- x4
(play 553 14 times)

Solo
e|--------------------|----------12~-------|
B|-9~-9h10~-14~-14p12~|-9~-9h10~----13~p12~|
G|--------------------|--------------------|
D|--------------------|--------------------|
A|--------------------|--------------------|
E|--------------------|--------------------|

Chorus
e|----x-----x----x----|
B|----x-----x----x----|
G|----x-777-x----x----|
D|-99-x-777-x-77-x555-|
A|-99-x-555-x-77-x555-|
E|-77-x-----x-55-x333-| x4

Outro

e|----------|
B|----------|
G|----------|
D|-5~~------|
A|-5~~------|
E|-3~~------|



Comments