Sidewalk Stereo - The Last Time Chords & Tabs

 

The Last Time Chords & Tabs

Sidewalk Stereo Chords & Tabs

Version: 1 Type: Tab 1 rating
1 star 2 stars 3 stars 4 stars 5 stars
comments

The Last Time Tab

Tuning: Standard
Tab: Ryan of Sidewalk Stereo
Submitted: Corey

Guitar 1 
(hit this note repeatedly until the part where it rings out) 
e|-------| 
B|-------| 
G|---7---| 
D|-------| 
A|-------| 
E|-------| 


Guitar 2 
(Rhythm Guitar for Intro and Chorus) 
(Alternate playing these chords, you should be able to get the rhythm from the song) 

e|---x---| 
B|---x---| 
G|---7---| 
D|---7---| 
A|---5---| 
E|---x---| 

e|---x---| 
B|---x---| 
G|---6---| 
D|---7---| 
A|---5---| 
E|---x---| 

e|-----------------------------------| 
B|-----------------------------------| 
G|---7-7-----7-7---7---7-----7-6-----| play x 4 
D|-----------------------------------| 
A|-------5-5-----5-------5-5-----7---| 
E|-----------------------------------| 

Guitar 1 
(This is the lead part that is played over Guitar 2 for the Intro and Chorus) 

e|--------------------------------------| 
B|-------10-----7-----5-----5-----5h7---| 
G|---7-7----7-7---7-7---7-7---7-7-------|  play x 4 
D|--------------------------------------| 
A|--------------------------------------| 
E|--------------------------------------| 
[ Tab from: http://www.guitartabs.cc/tabs/s/sidewalk_stereo/the_last_time_tab.html ]
e|----------------------------| 
B|---------10-7-------10-7-7h8| 
G|---7-7-7------7-7-7---------| play x 2 
D|----------------------------| 
A|----------------------------| 
E|----------------------------| 

Guitar 2 
(This is the part for the verse) 
(Just strum these chords once and let them ring out) 

e|---x---| 
B|---x---| 
G|---7---| 
D|---7---| 
A|---5---| 
E|---x---| 
             play both of these x 2 (alternating) 
e|---x---| 
B|---x---| 
G|---6---| 
D|---7---| 
A|---5---| 
E|---x---| 

e|--------------------------------------| 
B|-------10---8-----7---8-----7---8-----| 
G|---7-7-7--7-7-7-7-7-7-7-7-7-7-7-7-----|  play x 4 
D|--------------------------------------| 
A|--------------------------------------| 
E|--------------------------------------| 

Guitar 2 
(Verse part, play this over the Guitar 2 verse part) 

e|--------------------------------------| 
B|-------10---8-----7---8-----7---8-----| 
G|---7-7-7--7-7-7-7-7-7-7-7-7-7-7-7-----|  play x 4 
D|--------------------------------------| 
A|--------------------------------------| 
E|--------------------------------------| 

e|--------------------------------------| 
B|---7h8h7h8h7h8h7h8--------------------| 
G|--------------------------------------| 
D|--------------------------------------| 
A|--------------------------------------| 
E|--------------------------------------| 
Comments