Side Walk Slam - Time Will Pass You By Chords & Tabs

 

Time Will Pass You By Chords & Tabs

Side Walk Slam Chords & Tabs

Version: 1 Type: Bass Tab 0 ratings
1 star 2 stars 3 stars 4 stars 5 stars
comments

Time Will Pass You By Bass Tab

   
I was suprised this isnt on here. Its the easiest song in the world. i know its 100%
correct cause David Curtiss (the bass player) himself showed it to me. here you go.
enjoy.


Intro -
(Guitar strums once)

G|------------------------------------------------------------|
D|------------------------------------------------------------|
A|---5555-5--3333333------------------------------------------|
E|------------------------------------------------------------|X1

Verse -

G|------------------------------------------------------------|
D|------------------------------------------------------------|
A|--55555-2222222-00000000------------------------------------|
E|---------------------------33-55----------------------------|X2

Chorus -

G|-------------------------------------------------------------|
D|-------------------------------------------------------------|
A|------5-0000-222---------------------------------------------|
E|--33---------------------------------------------------------|X4

(Repeat Verse)
(Repeat Chorus)

Bridge -
[ Tab from: http://www.guitartabs.cc/tabs/s/side_walk_slam/time_will_pass_you_by_btab.html ]
G|------------------------------------------------------------|
D|------------------------------------------------------------|
A|--5555555555-0000000000000----------------------------------|
E|----------------------------33-55---------------------------|X2


G|-----------------------------------------------------------|
D|-----------------------------------------------------------|
A|------------------------------------------1212121212121212-|
                                       (Those are twelve's)
E|--333333333333-5555555555555----------------------------X1

(Guitar cuts out)

G|-----------------------------------------------------------|
D|-----------------------------------------------------------|
A|------5-000-222--------------------------------------------|
E|-33/-------------------------------------------------------|X6

(Guitar comes back in)

G|-----------------------------------------------------------|
D|-----------------------------------------------------------|
A|------5-000-222--------------------------------------------|
E|-33/-------------------------------------------------------|X8
    (do this until the end)

(End on B)

Thats it.Thanks and enjoy!! s.w.s rawks!!!
Comments