Side A - It Might Be You Chords & Tabs

 

It Might Be You Chords & Tabs

Side A Chords & Tabs

Version: 2 Type: Tab 0 ratings
1 star 2 stars 3 stars 4 stars 5 stars
comments

It Might Be You Tab

E------3--5--5h7--3------3--5--5h7--3------3--5--5h7--3------3--3h5p3----3-|
B----3--3--------------3--3--------------3--3--------------3--3-------3h5--|
G--0-----------------4-----------------5-----------------5-----------------|
D--------------------------------------------------------------------------|
A--------------------------------------------------------------------------|
E--------------------------------------------------------------------------|
[ Tab from: http://www.guitartabs.cc/tabs/s/side_a/it_might_be_you_tab_ver_2.html ]
E------3--5--5h7--3------3--5--5h7--3------3--5--5h7--3------3--3h5p3----3-|
B----3--3--------------3--3--------------3--3--------------3--3-------3h5--|
G--0-----------------4-----------------5-----------------5-----------------|
D--------------------------------------------------------------------------|
A--------------------------------------------------------------------------|
E--------------------------------------------------------------------------|
[ Tab from: http://www.guitartabs.cc/tabs/s/side_a/it_might_be_you_tab_ver_2.html ]
E------3-3------10-10--------10-10---------10-10--12-8--8-7-3-3---|
B----3------7-8--------8-7-8--------8-7-8-------------------------|
G--0--------------------------------------------------------------|
D-----------------------------------------------------------------|
A-----------------------------------------------------------------|
E-----------------------------------------------------------------|

eto lng poh!!!!hehehe
hope u enjoy
add me s frendter plsss...jakalogs@yahoo.com
Comments