Side A - Forevermore Chords & Tabs

 

Forevermore Chords & Tabs

Side A Chords & Tabs

Version: 5 Type: Tab 0 ratings
1 star 2 stars 3 stars 4 stars 5 stars
comments

Forevermore Tab

   
Forever More (Side A)
Tabbed by Rommel Manzano
jrcmanzano@yahoo.com (+639164482742)
[ Tab from: http://www.guitartabs.cc/tabs/s/side_a/forevermore_tab_ver_5.html ]
Intro: E-F#m scales
|---------0-------0-----0-----------0-------0-----0--|
|-----------0---0-----0---------------0---0-----0----|
|-------------2-----2-------------------2-----2------|
|-----2s4-----------------------2s4------------------|
|---2---------4---------------2---------4------------|
|-0-------------------------0------------------------|
Verse:
|------------------------------------0-----------------------|     NOTE:
|-----0-----4------5-------4------0h2----2------2-5-4--------|The lyrics are
|---1-----4--4---6---6---4--4---2------2--0---2--------------|just signals on
|------------------------------------------------------------|where to start.
|-------6------4-------4------0-------------2-----2-2--------|Don?t mind their
|-0----------------------------------------------------------|positions. Only
     There are times...                                the first word
|------------------------------------0------------------|is needed to be
|-----0-----4------5-------4------0h2----2------2-5-4---|emphasized. This
|---1-----4--4---6---6---4--4---2------2--0---2---------|is not an easy
|-------------------------------------------------------|song to pick.
|-------6------4-------4------0-------------2-----2-2---|Familliarize
|-0-----------------------------------------------------|yourself before
Pre-Chorus:                                            playing. That
|-------4-------------2------------------------------| will be a big
|-5-------5-------------4------4h5-4---<-Break->-----| help for you...
|---6-------6-------3-----4-4------------------------|
|-----------------2--------4-4-----------------------|
|-4---4-------6-4-------2------2---2-----------------|
|----------------------------------------------------|
           I just can?t believe...
Chorus:
|------0-2-4----2-----4--0-----0--|   Yung Chorus, finger picking
|--2-4-------3----0--------0h2----|   lang talaga sa gitara. Kung
|----------4--4-----2-2-----------|  i-tatab yung sa piano, nahirap
|---------------------------------|tugtugin dahil malayo yung mga nota.
|------------------------0-0------|
|-0-------------------------------|
   You were just a dream...
|------0-2-4----2-----4--0-----0---------------------|
|--2-4-------3----0--------2-------------------------|
|----------4--4-----2-2------------------------------|
|----------------------------------------------------|
|------------------------0-0-------------------------|
|-0--------------------------------------------------|
   Never thought I...
|---------4--------------------0------------2-0-<-after-this---|
|-2-4-5-7---5---7-7-5-7-8-3-----3-----2-2-4------last-note,----|
|-------------6-------------4-2--0---2---------play-the-intro--|
|---------------------------0-------------4--------------------|
|---------4-----6------------------4---------------------------|
|--------------------------------------------------------------|
  I just can?t compare...

Bridge:

Do the chords on fine strumming patterns?. The chords is on the
Key of C.  I?ll tab it soon. This is enough for now, ok?
Enjoy playing, this is a good song!
Comments