Side A - Forevermore Chords & Tabs

 

Forevermore Chords & Tabs

Side A Chords & Tabs

Version: 2 Type: Tab 0 ratings
1 star 2 stars 3 stars 4 stars 5 stars
comments

Forevermore Tab





e----9------------------14-12--9-----------------------------
B---9--12--12-10-9-12-16------9--12---9-10-12-10-9-7---------
G------------------------------------------------------------
D------------------------------------------------------------
A------------------------------------------------------------
D------------------------------------------------------------
[ Tab from: http://www.guitartabs.cc/tabs/s/side_a/forevermore_tab_ver_2.html ]
e----9------------------14-12-14-16-21-19--19-20-21-20-19-17-
B---9--12--12-10-9-12-16-------------------------------------
G------------------------------------------------------------
D------------------------------------------------------------
A------------------------------------------------------------
D------------------------------------------------------------



its my first project but im 100% about the tab


this is the solo part near the end which i think is played in piano
but i got the tab anyway...

hope u enjoy the song and the lyrics and chords is also posted up
               
                                                  luis paulo san miguel
                                                          -wEs-
                                                 inter_nebula@hotmail.com
Comments