Side A - Forevermore Chords & Tabs

 

Forevermore Chords & Tabs

Side A Chords & Tabs

Version: 10 Type: Tab 0 ratings
1 star 2 stars 3 stars 4 stars 5 stars
comments

Forevermore Tab

forevermore- sideA
tuning- standard
type- leadlyrics
tabbed by- Marlo D. Derla
a.k.a- mharlhowne, "s"

	mga tol! para sa inyo toh! Medyo mhirap pero yakang yaka! Sundan nyo lang mabuti
para d mailto kinapa ko to sa original, dpat dalawa ang guitar para mas maganda habang
nag iistrum ang isa nag lileadlyrics ang isa... alay ko to para sa campus mistry ng tup
kay Jaime, vincentian sa taga tenement at mga frend ko sa san jose n. samar... "july 3
2005"
kayo n po bhala mag husga d2 sa gawa ko...    mharlhowne@yahoo.com 

legend: s-slide, h- hammer...

intro:
E|-------------------------------------------------------|
B|-------------------------------------------------------|
G|------------9------9-----------------------------------|
D|--------9-9------9-------------------------------------|
A|----11--------12---------------------------------------|
E|--0----------------------------------------------------|
                        (2x)
verse1:
E|-------------------------------------------------------|
B|-------------------------------------------------------|
G|------------------------------------8--9---9s/11---9---|
D|----------9h/11--9----------9--11----------------------|
A|----9h/11-----------11s/12-----------------------------|
E|--0----------------------------------------------------|

E|-------------------------------------------------------|
B|-------------------------------------------------------|
G|-------------------------------------------------------|
D|------9h/11--9----------9------------------------------|
A|--11------------11s/12-----12--11--9-------------------|
E|-------------------------------------------------------|

E|-------------------------------------------------------|
B|-------------------------------------------------------|
G|-----------------------------------89s/11--9----------|
D|------------9h/11--9---------9-11----------------------|
A|-----9h/11-----------11s/12----------------------------|
E|--0----------------------------------------------------|

E|-------------------------------------------------------|
B|-------------------------------------------------------|
G|-------------------------------------------------------|
D|-----9h/12--9----------9-------------------------------|
A|--11-----------11s/12-----12--11--9--------------------|
E|-------------------------------------------------------|

Refrain:
E|-------------------------------------------------------|
B|-------------------------------------------------------|
G|------------------------8-9-8--------------------------|
D|---------------------11-------11-11--11s/13--11-9-7-6--|
A|--9--11--7--------11-----------------------------------|
E|-----------11s/12--------------------------------------|


Chorus1:
E|-------------------------------------------------------|
B|-------------------------------------------------------|
G|-------9-1111s/13-13-11-13-9---9-11-13-14-13-11-13----|
D|--9-11------------------------9------------------------|
A|-------------------------------------------------------|
E|-------------------------------------------------------|

E|-------------------------------------------------------|
B|---------------10-12-12-10-----------------------------|
G|--11-9-9-11-13------------13-11-13-14-13-9-------11-9--|
D|--------------------------------------------11-9-------|
A|-------------------------------------------------------|
E|-------------------------------------------------------|

E|-------------------------------------------------------|
B|-------------------------------------------------------|
G|-------------------------------------------------------|
D|-------------------------------------------------------|
A|--11--12--11--9--7--9-9s/11---7-----------------------|
E|-------------------------------0-----------------------|
Ok! Tapos play nyo ulit yung  (Intro: 1x)

Verse:2
E|-------------------------------------------------------|
B|-------------------------------------------------------|
G|-------------------------------8-99s/11--9------------|
D|----------9h/11--9--------9-11-----------------9h/11-9-|
A|----9h/11----------11s/12-------------------11---------|
E|--0----------------------------------------------------|
[ Tab from: http://www.guitartabs.cc/tabs/s/side_a/forevermore_tab_ver_10.html ]
E|-------------------------------------------------------|
B|-------------------------------------------------------|
G|-------------------------------------------------------|
D|---------9---------------------------------------------|
A|--11s/12---12-11-9-------------------------------------|
E|-------------------------------------------------------|

E|----------------------------------------------------------|
B|----------------------------------------------------------|
G|---9-8----------------------8-11-9-8----------------------|
D|-------9s/11--9--------9-11----------11-9-------9---------|
A|----------------11s/12-------------------11s/12---12-11-9-|
E|-0--------------------------------------------------------|

Ok! Play mu uli ang (Refrain) tapos (Chorus1) then ito na..

Bridge:
E|-------------------------------------------------------|
B|-------------------------------------------------------|
G|--1212s/14------------------12-12s/14-----------------|
D|------------12-12-10-9-10-12-----------12s/14--12------|
A|-------------------------------------------------------|
E|-------------------------------------------------------|

E|-------------------------------------------------------|
B|-------------------------------------------------------|
G|--12-12-11-1212s/14----12-11-------12-12s/14----------|
D|---------------------12-------14-12-----------14-------|
A|-------------------------------------------------------|
E|-------------------------------------------------------|


Adlib:
E|-------------------------------------------------------|
B|---------------------9-10---10s/12---------------------|
G|----------------9-11-----------------------------------|
D|--9----9--10-12----------------------------------------|
A|----12-------------------------------------------------|
E|-------------------------------------------------------|

E|--------------------------12s/14--12-------------------|
B|--12-12-12-12-10-9-10-12-------------9-12s/14--12------|
G|-------------------------------------------------------|
D|-------------------------------------------------------|
A|-------------------------------------------------------|
E|-------------------------------------------------------|

E|-------------------------------------------------------|
B|--9-1010s/12--10-9-7--912s/14--12-12-10-9-10-12------|
G|-------------------------------------------------------|
D|-------------------------------------------------------|
A|-------------------------------------------------------|
E|-------------------------------------------------------|

E|--12s/14--12-12-14-21-19-16-17-19-17-16-14-------------|
B|-------------------------------------------------------|
G|-------------------------------------------------------|
D|-------------------------------------------------------|
A|-------------------------------------------------------|
E|-------------------------------------------------------|
Ok! Play uli ang (Refrain)  play the (Chorus2)

Chorus2:
E|-------------------------------------------------------|
B|-------------------------------------------------------|
G|--------9-1111s/13--13-11-13-9---9-11-13-14-13-11-13--|
D|--9-11--------------------------9----------------------|
A|-------------------------------------------------------|
E|-------------------------------------------------------|

E|-------------------------------------------------------|
B|---------------10-12-12-10-----------------------------|
G|--11-9-9-11-13-------------13-11-13-14-13-9------11-9--|
D|--------------------------------------------11-9-------|
A|-------------------------------------------------------|
E|-------------------------------------------------------|

E|-------------------------------------------------------|
B|-------------------------------------------------------|
G|---------9-9------11-9-------9-9------11-9-------------|
D|-------------11-9----------------11-9------------------|
A|--12-12----------------11-12---------------11-12-11-9--|
E|-------------------------------------------------------|

E|------------------|------------------------------------|
B|------------------|------------------------------------|
G|------------------|------11-9--------------------------|
D|------------------|-11-9-------------------------------|
A|--7-9-9s/11--7---|----------11-12-11-9-7-9--9s/11--7--|
E|--------------0---|---------------------------------0--|
Ay! Tapus, sana nagawa nyo ng tama.. maganda yan 85%..... =)
Dapat yung guitar nyo hanggang 21frets para ok!  "s"
Comments