Side A - Forevermore Chords & Tabs

 

Side A Chords & Tabs

Version: 1 Type: Tab 0 ratings
1 star 2 stars 3 stars 4 stars 5 stars
comments

Forevermore Tab

   
Tabbed by: Wendell Segundo
Song: Forevermore
Song by: Side A 

Intro:
|-------0----0---------0--0----|
|---------0----0----0--------0-|
|------------------------------|
|-----6----------7-------------|2x
|-----7---5------7-------------|
|--0---------------------------|

A9
|---------0------|
|---2--0---------|
|---2------------|
|----------------|
|----------------|
|----------------|
[ Tab from: http://www.guitartabs.cc/tabs/s/side_a/forevermore_tab.html ]
VERSE:
E          B
There are times,
   C#m              B             A9
when I just want to look at your face
          F#m         Bsus-B
With the stars in the night
E          B
There are times,
   C#m              B            A9
When I just want to feel your embrace
        F#m  Bsus-B 
In the cold night


PRE CHORUS:
C#m7         F#m         B         A9   A(HIGH)-G(HIGH)
I just cant believe that you are  mine now


CHORUS:
                 E          G#m    A9
You were just a dream that I once knew
          E           G#m
I never thought I would be 
           A9
right for you
                E         E7
I just can't compare you with
  A9
anything in this world
   G#m        C#m  F#m        
You're all I need to be with
  Bsus-B
Forevermore.

(INTRO)

If you have any comments, email me at Wendell_Mreal@yahoo.com
Comments