Siddhartha - Pot V X Chords & Tabs

 

Pot V X Chords & Tabs

Siddhartha Chords & Tabs

Version: 1 Type: Tab 0 ratings
1 star 2 stars 3 stars 4 stars 5 stars
comments

Pot V X Tab

   
@Siddharta
@Album: Id

@Pot v x
(Chords+Tabs)

V sobani poet sedi
v upanju, da prave rime dobi,
za vsak trenutek, ki ga je doživel
v življenju na svetu zanj polnemu gorja in milosti.

Morda je prav tudi to,
temu naj sodi le zdravo telo.
Vem pa, da vse temelji le na tem
in vsem to povem:
Ali bi radi dober fix ali le pot v x?

A vsi vemo, da nekateri bi radi  e čarati znali,
vsi vemo, da za minuti bi slave sebe prodali,
žalostno, da ti lažnivi dobijo denar le tako,
da samo sranje na police filajo.

Vsak policaj bil je tat
in vse belo spremeni se v temno,
če bi od zadaj jih osvetlili z lučjo
in vse gre tako od pisal "olikancev"
v u esa blaznežev.

A vsi vemo, da nekateri bi radi  e čarati znali,
vsi vemo, da za minuti bi slave sebe prodali,
žalostno, da ti lažnivi dobijo denar le tako,
da samo sranje na police filajo.

Sam je pravil, da je pisal, kar je čutil,
danes pa prodaja neke slinaste
niti omembe vredne pesmice.

A vsi ne vedo, da so nasedli
vsem tem hinavskim lažem.
Ne vedo, da le strmijo
v stvari, ki v bistvu jih ni.
Žalostno, da ti lažnivi dobijo denar le tako,
da samo sranje svetu filajo.

Ne vedo... Ne vedo...

Akordi:
INTRO / KITICA:  a  F  G   E(7)
BRIDGE:             F  B  d  B  d  F  E(7)
KITIC a
REF.:                 a  F  G  E  3X
                        a  F  B  G  E
KITICA
BRIDGE
REF
SOLO:                a  F  d  G
                         a  F  d  F
                         a  F  B  G
INTER.:               E  a  E  a  2X
                         E  F  G  E
REF
SOLO 2               a  F  G  E  3X
                         a  F  B  G

Vir akordov: http://www.multimedia-rec.si/multimedia/siddharta/indexe.htm

@Tablature
SIDDHARTA - POT V X

Uvod + Kitica

     Am              F               G*                  E
E-------------+--------------+----------------+-------------------|
B--------1----+---------1----+------3---------+------0-1----------|
G-----------4-+------4-----4-+----4----4------+----1--------------|
D-----2-------+---3----------+--5--------5--0-+--2----------------|
A--0----------+--------------+----------------+-------------------|
E-------------+--------------+----------------+-------------------|
[ Tab from: http://www.guitartabs.cc/tabs/s/siddhartha/pot_v_x_tab.html ]
Bridge
        F       B       d          B       d    F    . E. .
E-------------------------------------------------+---------------|
B-------1-----1-1/3-1-0---------1-1/3-1-0---------+---------------|
G-----2----2-------------1h2-2--------------1h2-2-+-1--1----------|
D---2---------------------------------------------+-2--2----------|
A-------------------------------------------------+-2--2----------|
E-------------------------------------------------+-0--0----------|


Solo1   2:17

E----5-----7-8-8--7-8-8---7-8--7--5--7--5---10/12--12--10--------|
B--5-------------------------------------------------------------|
G----------------------------------------------------------------|
D----------------------------------------------------------------|
A----------------------------------------------------------------|
E----------------------------------------------------------------|

E---10---12p10--12--10--10-12p10-12/13--13--12--13-13---7-8-8----|
B----------------------------------------------------------------|
G----------------------------------------------------------------|
D----------------------------------------------------------------|
A----------------------------------------------------------------|
E----------------------------------------------------------------|

E--7-8-8---7-8p7-8/10--8--7-8/10--8--7---------7---7/12---12/0---|
B----------------------------------------8~~------ 8/12---12/0---|
G----------------------------------------------------------------|
D----------------------------------------------------------------|
A----------------------------------------------------------------|
E----------------------------------------------------------------|

Solo2  3:37

   4x
E-----------------+-----------------------------------------------|
B---3~-3~ 4~--4~--+--3-3-3/5--3--1--0--1--3--3--3/5-5h6--5--3--5--|
G-----------------+-----------------------------------------------|
D-----------------+-----------------------------------------------|
A-----------------+-----------------------------------------------|
E-----------------+-----------------------------------------------|

E----------------------------------------------------------------|
B--5-5-5h6-6----5-5-5h6--5-5-5/8--8-8-8/6--6-6-6/5--5-5-5/3-3----|
G----------------------------------------------------------------|
D----------------------------------------------------------------|
A----------------------------------------------------------------|
E----------------------------------------------------------------|

E---------------------------------------------------0-------------|
B--3-3h5-5-5-5p3--3-3-3h5--5-5-5p3-3-3-3/1-1-1------0-------------|
G-----------------------------------------------0---1-------------|
D---------------------------------------------------2-------------|
A---------------------------------------------------2-------------|
E---------------------------------------------------0-------------|

G* =  355433

Vsi poravki so zazeljeni!!!(aljaz.kusar@email.si)
Aljaz-Rusko
Comments