Siddhartha - B Mashina Chords & Tabs

 

B Mashina Chords & Tabs

Siddhartha Chords & Tabs

Version: 1 Type: Tab 0 ratings
1 star 2 stars 3 stars 4 stars 5 stars
comments

B Mashina Tab

   
SIDDHARTA -- B mashina
(www.siddharta.com)

LEGEND:
	M = mute
	× = palm mute
	\ = slide down
	/ = slide up
	~ = let ring 

ITNRO: (00:09 - 00:14)

   F#m                E      D                   Cis
e|--------------------------------------------------|
B|--------------------------------------------------|
G|-11-11-11-11--11--11-9------7--7--7--7---7---7--6-|
D|--------------------------------------------------|
A|-9--9--9--9---9---9--7------5--5--5--5---5---5--4-|
E|--------------------------------------------------|


PRE VERSE 1: (00:14 - 00:29)

   F#m       E         D         C#        F#m       E         D         C#
e|-----------------------------------------------------------------------------------------|
B|-----------------------------------------------------------------------------------------|
G|-----------------------------------------------------------------------------------------|
D|-4--4-4--4-2--2-2-2--7--7-7--7-6-6-6-6-6-4--4-4--4-2--2-2-2--7--7-7--7-6-6-6-6-6~~~~~~~~-|
A|-4--4-4--4-2--2-2-2--5--5-5--5-4-4-4-4-4-4--4-4--4-2--2-2-2--5--5-5--5-4-4-4-4-4~~~~~~~~-|
E|-2--2-2--2-0--0-0-0--5--5-5--5-4-4-4-4-4-2--2-2--2-0--0-0-0--5--5-5--5-4-4-4-4-4~~~~~~~~-|


VERSE 1: (00:29 - 00:40)

F#m     E        D           Cis
Samo en dan je ostal samo en dan
Oddajamo ostale mi gremo drugam


PRE VERSE 2: (00:40 - 00:52)

   F#m       E         D         C#          F#m       E         D        C#
e|-----------------------------------------M-----------------------------------------|
B|-----------------------------------------M-----------------------------------------|
G|-----------------------------------------M-----------------------------------------|
D|-4--4-4--4-2--2-2-2--7--7-7--7-6-6-6-6-6-M--4-4-4--4-2--2-2-2--7--7-7--7-6-6-6-6-6-|
A|-4--4-4--4-2--2-2-2--5--5-5--5-4-4-4-4-4-M--4-4-4--4-2--2-2-2--5--5-5--5-4-4-4-4-4-|
E|-2--2-2--2-0--0-0-0--5--5-5--5-4-4-4-4-4-M--2-2-2--2-0--0-0-0--5--5-5--5-4-4-4-4-4-|


VERSE 2: (00:52 - 01:15)

F#m             E             D                C#
Dons krademo vsi dons smo žival lastnine več ni
Dobil smo možgane od divjakov in krila za let do oblakov
Naj pade sonce v ocean
Nad nami bruha naj vulkan
Za nas je dost da imamo moč in znanje s čimer sanje


Chorus 1: (01:15 - 01:37)

F#m        E          Bm   E
In mashine dvigamo v nebo,  nad vse
      F"m     E            Bm
naj spijo     oni ki ne vedo
 E
da je zadn dan in zadn dan
ta zadn dan ta zadn danes ni noben

   C#        F#m       E         Bm        E
e|---------------------------------------------------|
B|---------------------------------------------------|
G|------7\6------------------------------------------|
D|-6-6-------4--4-4--4-2--2-2-2--4--4-4--4-2-2-2-2-2-|
A|-4-4--5\4--4--4-4--4-2--2-2-2--2--2-2--2-2-2-2-2-2-|
E|-4-4-------2--2-2--2-0--0-0-0--2--2-2--2-0-0-0-0-0-|

   F#m       E         Bm        E
e|--------------------------------------------------M------M------------------------|
B|--------------------------------------------------M------M------------------------|
G|--------------------------------------------------M------M------------------------|
D|-4--4-4--4-2--2-2-2--4--4-4--4-2-2-2-2-2~~~~~~2-2-M------M--2-4--0-2--------------|
A|-4--4-4--4-2--2-2-2--2--2-2--2-2-2-2-2-2~~~~~~2-2-M--0-2-M-----------0-2--2/4-2-2-|
E|-2--2-2--2-0--0-0-0--2--2-2--2-0-0-0-0-0~~~~~~0-0-M------M------------------------|


VERSE 3: (01:37 - 02:00)

A           E           D         C#
Miljon mashin na nitroglicerin grmi v nas
F#m          E                 D
Ni sile ni dnarja in ni ga vladarja
             C#                  A
ki bi nas ustavil in zamenjal obraz
          E          Bm
preden vstanem se ozrem
          E              F#m
zdaj je uničen vsak problem
          E         D
dvigujem roke in telo
          C#
na vrh vesolja v zvezde gremo...


CHORUS 2: (02:00 - 02:41)

C#        F#m       E          Bm    E
...gremo. Mashine dvigamo v nebo    nad vse
      F#m      E            Bm
naj spijo      oni ki ne vedo
 E                   F#m      E
da je zadn dan (naj spijo) 
            Bm
ti ki ne vedo
 E          F#m     E         Bm           (F#m  E)
nas napaja divja   b-mashina se ne vda
[ Tab from: http://www.guitartabs.cc/tabs/s/siddhartha/b_mashina_tab.html ]
                                   |------------- this part 3x ------------|
   C#                              F#m       E         Bm        E
e|----M-----M-----M-----M--------------------------------------------------|
B|----M-----M-----M-----M--------------------------------------------------|
G|----M-----M-----M-----M--------------------------------------------------|
D|-6-6M--6-6M--6-6M--6-6M--6-6-6-6-4--4-4--4-2--2-2-2--4--4-4--4-2-2-2-2-2-|
A|-4-4M--4-4M--4-4M--4-4M--4-4-4-4-4--4-4--4-2--2-2-2--2--2-2--2-2-2-2-2-2-|
E|-4-4M--4-4M--4-4M--4-4M--4-4-4-4-2--2-2--2-0--0-0-0--2--2-2--2-0-0-0-0-0-|

                                                                         |------- 2x ------|
   F#m       E         Bm        |--------- 2x ----------|               
e|-----------------------------------------M------------M----------------------------------|
B|-----------------------------------------M------------M----------------------------------|
G|-----------------------------------------M------------M----------------------------------|
D|-4--4-4--4-2--2-2-2--4--4-4--4-----------M------------M----------------4~~~~~~2-4~~~~~~2-|
A|-4--4-4--4-2--2-2-2--2--2-2--2--4-5-4-2-4M---4-5-4-2-4M---4-5-4--0-----4~~~~~~2-4~~~~~~2-|
E|-2--2-2--2-0--0-0-0--2--2-2--2-----------M------------M-------------4--2~~~~~~0-2~~~~~~0-|


PRE VERSE 3: (02:42 - 02:53)

   F#m       E         D         C#        F#m       E         D         C# 
e|---------------------------------------------------------------------------------|
B|---------------------------------------------------------------------------------|
G|---------------------------------------------------------------------------------|
D|-4--4-4--4-2--2-2-2--7--7-7--7-6-6-6-6-6-4--4-4--4-2--2-2-2--7--7-7--7-6-6-6-6-6-|
A|-4--4-4--4-2--2-2-2--5--5-5--5-4-4-4-4-4-4--4-4--4-2--2-2-2--5--5-5--5-4-4-4-4-4-|
E|-2--2-2--2-0--0-0-0--5--5-5--5-4-4-4-4-4-2--2-2--2-0--0-0-0--5--5-5--5-4-4-4-4-4-|


BRIDGE: (02:53 - 03:33)

   F#m           E             D             C#
e|--------------------------------------------------------|
B|--------------------------------------------------------|
G|--------------------------------------------------------|    ---- 2x
D|--------------------------------------------------------|
A|-4-4-4--4-4-4--2-2-2--2-2-2--5-5-5--5-5-5--4-4-4--4-4-4-|
E|-2-2-2--2-2-2--0-0-0--0-0-0--5-5-5--5-5-5--4-4-4--4-4-4-|
   × × ×  × × ×  × × ×  × × ×  × × ×  × × ×  × × ×  × × ×

   F#m               E                 D                 C#
e|------------------------------------------------------------------------|
B|------------------------------------------------------------------------|
G|------------------------------------------------------------------------|    
D|------------------------------------------------------------------------|
A|-4-4-4-4--4-4-4-4--2-2-2-2--2-2-2-2--5-5-5-5--5-5-5-5--4-4-4-4--4-4-4-4-|
E|-2-2-2-2--2-2-2-2--0-0-0-0--0-0-0-0--5-5-5-5--5-5-5-5--4-4-4-4--4-4-4-4-|
   × × × ×  × × × ×  × × × ×  × × × ×  × × × ×  × × × ×  × × × ×  × × × ×  

   F#m      E        D        C#
e|------------------------------------|
B|------------------------------------|
G|------------------------------------|    ---- 2x
D|------------------------------------|
A|-4-4-4-4--2-2-2-2--5-5-5-5--4-4-4-4-|
E|-2-2-2-2--0-0-0-0--5-5-5-5--4-4-4-4-|
   × × × ×  × × × ×  × × × ×  × × × ×

   F#m      E        D        C#
e|----------------------------------|
B|----------------------------------|
G|----------------------------------|    ---- 2x
D|----------------------------------|
A|-4-4-4-4--2-2-2-2--5-5-5-5--4-4-4-|
E|-2-2-2-2--0-0-0-0--5-5-5-5--4-4-4-|
   × × ×    × × ×    × × ×    × × ×

   F#m
e|--------------|
B|--------------|
G|--------------|
D|-4~~~~~~~~~~~-|
A|-4~~~~~~~~~~~-|
E|-2~~~~~~~~~~~-|


Chorus 3: (03:52 - 04:28)

F#m       E          Bm    E
Mashine dvigamo v nebo    nad vse
      F#m     E            Bm
naj spijo     oni ki ne vedo
 E
da je zadn dan
       F#m     E               Bm
(naj spijo)        ti ki ne vedo
 E          F#m     E         Bm   E           F#m
Nas napaja divja   b-mashina ki nikoli se ne vda
 G#m       A  Bm    C#   D    F#m     G#m     A  Bm    C#   D  F#m
         Vda,         se ne vda,             vda.

   F#m       E         Bm        E
e|-----------------------------------------|
B|-----------------------------------------|
G|-----------------------------------------|   ---- 4x
D|-4--4-4--4-2--2-2-2--4--4-4--4-2-2-2-2-2-|
A|-4--4-4--4-2--2-2-2--2--2-2--2-2-2-2-2-2-|
E|-2--2-2--2-0--0-0-0--2--2-2--2-0-0-0-0-0-|

   |--------------- 2x -----------------|
   F#m     G#m        D      Bm     C#  D
e|-------------------------------------------M-----M--|
B|-------------------------------------------M-----M--|
G|-------------------------------------------M-----M--|
D|-------------------------------------------M-4-4-M--|
A|---------------------------2-2--2-4---5----M-4-4-M--|
E|-2---2---4-4-4-4-4--5---5----------------2-M-2-2-M--|

That's it.
Comments