Sick Puppies - Riptide Chords & Tabs

 

Sick Puppies Chords & Tabs

Version: 1 Type: Bass Tab 0 ratings
1 star 2 stars 3 stars 4 stars 5 stars
comments

Riptide Bass Tab

   
Tuning: EADG
    VERSE RIFF throughout song. S = SLAP or major pickage whatever you must do to get 
raspy sound.
CHORUS *These are the notes and the order I am not going to count exactly how many times
do certain  ones. Most of the chorus is just notes held out anyways.
There are NO 11's in this song all ones are 1's.
This tab is not perfect but should definitely be something you can use to play along 
the song.

Tuning: EADG
    VERSE RIFF throughout song. S = SLAP or major pickage whatever you must do to get 
raspy sound.
CHORUS *These are the notes and the order I am not going to count exactly how many times
do certain  ones. Most of the chorus is just notes held out anyways.
There are NO 11's in this song all ones are 1's.
This tab is not perfect but should definitely be something you can use to play along 
the song.

-------------------------------------------------------------------------------
			     RIP TIDE - Sick Puppies
-------------------------------------------------------------------------------

Tabbed By : Erik Brush
e-mail: accel789@msn.com

Tuning: Standard
VERSE
     ss  ss  ss  ss ssss   ss  ss ss  ss  ss
G|---------------------------------------------------------------------------|
D|---------------------------------------------------------------------------|
A|------------------57570--33--33--------------------------------------------|
E|---55--55--33--33----------------11--11--33--------------------------------|
[ Tab from: http://www.guitartabs.cc/tabs/s/sick_puppies/riptide_btab.html ]
  VERSE with riff that Emma Does. I believe this is all slapped or heavy pick
G|---------------------------------------------------------------------------|
D|-------------------------------53------------------------------------------|
A|------------------57570--33--33--5300--------------------------------------|
E|---55--55--33--33-----------------------11--11--33-------------------------|


 CHORUS Riff Most notes are held out.
G|---------------------------------------------------------------------------|
D|---------------------------------------------------------------------------|
A|---------------------------------------------------------------------------|
E|-8--3-111155555--3--8--3--111----------------------------------------------|

Small Riff in between Chorus 1 and Verse 2
G|---55--332x-------------------------------------------------------------------|
D|-----------3------------------------------------------------------------------|
A|------------------------------------------------------------------------------|
E|------------------------------------------------------------------------------|
  Bridge starting riff

G|---55--332x-------------------------------------------------------------------|
D|-----------3------------------------------------------------------------------|
A|------------------------------------------------------------------------------|
E|------------------------------------------------------------------------------|

   Bridge Main and Final ending riff after final chorus.
G|-----------------------------------------------------------------------------|
D|-----------------------------------------------------------------------------|
A|----3---1--0-----------------------------------------------------------------|
E|-8-----------111-------------------------------------------------------------|

| /  slide up
| \  slide down
| h  hammer-on
| p  pull-off
| ~  vibrato
| +  harmonic
| x  Mute note
============================================================================
Comments