Sick Puppies - Die To Save You Chords & Tabs

 

Die To Save You Chords & Tabs

Sick Puppies Chords & Tabs

Version: 1 Type: Tab 0 ratings
1 star 2 stars 3 stars 4 stars 5 stars
comments

Die To Save You Tab

   
Sick Puppies
Die to Save You
Drop C Tuning

(/) Slide Up  (\) Slide Down  (h) Hammer On  (p) Pull Off  (b) Bend (r) Release (v) Vibrato

Intro (Watching live videos, this isn't exactly the way he plays this.  It sounds pretty
accurate still, just different positioning.

E|-9---9---5---5---5---5---13----12----6---6---6---6---7---7---7---7---|
B|---9---9---3---3---3---3----11----11---6---6---6---6---6---6---6---6-|
G|---------------------------------------------------------------------|
D|---------------------------------------------------------------------|
A|---------------------------------------------------------------------|
E|---------------------------------------------------------------------|



E|-9---9---5---5---5---5---13----12----6---6---6---6---12----12----12-|
B|---9---9---3---3---3---3----11----11---6---6---6---6----10----10----|
G|--------------------------------------------------------------------|
D|--------------------------------------------------------------------|
A|--------------------------------------------------------------------|
E|--------------------------------------------------------------------|


Pre-Verse 1
E|-----------------------------------------------------------------|
B|-----------------------------------------------------------------|
G|-----------------------------------------------------------------|
D|-----------------------------------------------------------------|
A|---------------------------------3-5-1-3-0---------------------0-|
E|-0-2-3-0-2-3-2-3-5-2-3-5-3-5-8-5-----------8-7-3-7-5-3-2-0-2-3---|



E|-----------------------------------------------------------------|
B|-----------------------------------------------------------------|
G|-----------------------------------------------------------------|
D|-----------------------------------------------------------------|
A|---------------------------------3-5-1-3-0---------------------0-|
E|-0-2-3-0-2-3-2-3-5-2-3-5-3-5-8-5-----------8-7-3-7-5-3-2-0-2-3---|


Verse (This is played with a harmonic live, but I prefer this.  This note is repeated a
few times.)
E|---
B|---
G|-7-
D|-x-
A|-5-
E|---



E|-9---9---5---5---5---5---13----12----6---6---6---6---7---7---7---7---|
B|---9---9---3---3---3---3----11----11---6---6---6---6---6---6---6---6-|
G|---------------------------------------------------------------------|
D|---------------------------------------------------------------------|
A|---------------------------------------------------------------------|
E|---------------------------------------------------------------------|



E|-9---9---5---5---5---5---13----12----6---6---6---6---12----12----|
B|---9---9---3---3---3---3----11----11---6---6---6---6----10----10-|
G|-----------------------------------------------------------------|
D|-----------------------------------------------------------------|
A|-----------------------------------------------------------------|
E|-----------------------------------------------------------------|


Pre-Chorus 1
E|---------|
B|---------|
G|---------|
D|-x-x-x-x-
A|-x-x-x-x-
E|-x-x-x-x-


Chorus 1 (These chords are played multiple times, but the amount should be simple enough
to figure out just from playing along.)
E|-----------|
B|-----------|
G|-----------|
D|--5--0--7--|
A|--5--0--7--|
E|--5--0--7--|


[ Tab from: http://www.guitartabs.cc/tabs/s/sick_puppies/die_to_save_you_tab.html ]
E|-------------------------------------------------|
B|-------------------------------------------------|
G|--5/7--------7/9--------9/10--------10/12--------|
D|--x/x--0--0--x/x--0--0--x/x---0--0---x/x---0--0--|
A|--3/5--0--0--5/7--0--0--7/8---0--0---8/10--0--0--|
E|-------0--0-------0--0--------0--0---------0--0--|


(Again, first chords are repeated.)
E|-----------------------------|
B|-----------------------------|
G|-----------------------------|
D|--5--0--7--0----7--5--10--8--|
A|--5--0--7--0----7--5--10--8--|
E|--5--0--7--0----7--5--10--8--|

Repeat Pre-Verse 1 (One line.)

Repeat Verse(Ending with the below.)

E|-----------------------------|
B|-----------------------------|
G|-----------------------------|
D|------------------5--3--8--7-|
A|------------------5--3--8--7-|
E|-5-5-5-5-5-5-5-5--5--3--8--7-|

Repeat Chorus 1(Switching out the end chords with the below.)

E|--------------------------|
B|--------------------------|
G|--------------------------|
D|--5--0--7--5----7--5--7b--|
A|--5--0--7--5----7--5--7b--|
E|--5--0--7--5----7--5--7b--|

Repeat first line of Intro

Bridge (I added the beginning because I liked how it sounded.)
E|----------------------------------------------------------|
B|----------------------------------------------------------|
G|--10--9--7--------10--9--7--------10--9--7----------------|
D|----------------------------------------------7--5--7b----|
A|----------------------------------------------7--5--7b----|
E|----------------------------------------------7--5--7b----|


Chorus 3
E|-----------|
B|-----------|
G|-----------|
D|--5--0--7--|
A|--5--0--7--|
E|--5--0--7--|



E|-------------------------------------------------|
B|-------------------------------------------------|
G|--5/7--------7/9--------9/10--------10/12--------|
D|--x/x--0--0--x/x--0--0--x/x---0--0---x/x---0--0--|
A|--3/5--0--0--5/7--0--0--7/8---0--0---8/10--0--0--|
E|-------0--0-------0--0--------0--0---------0--0--|



E|---------------------------|
B|---------------------------|
G|---------------------------|
D|--5--0--7--5---7--5--7b----|
A|--5--0--7--5---7--5--7b----|
E|--5--0--7--5---7--5--7b----|


Outro
E|------------------------------------------|
B|--15--------------------------------------|
G|--17b-------------------------------------|
D|------------------------------------------|
A|------------------------------------------|
E|----------0-2-3-0-2-3-2-3-5-2-3-5-3-5-8-5-|



E|-----------------------------|
B|-----------------------------|
G|-------------------------5b--|
D|-----------------------------|
A|-3-5-1-3-0-------------------|
E|-----------8-7-3-7-5-3-0-----|



E|----------------------------------------------------------------------|
B|----------------------------------------------------------------------|
G|----------------------------------------------------------------------|
D|------------------------------------------------------------------0-0-|
A|---------------------------------3-5-1-3-0---------------------0--0-0-|
E|-0-2-3-0-2-3-2-3-5-2-3-5-3-5-8-5-----------8-7-3-7-5-3-2-0-2-3----0-0-|

...and that's it!  I have a recording of me playing this, but I haven't uploaded it to
YouTube or anything because it'd probably get pulled since the album's release date
hasn't actually arrived yet (7/16). I also have Gunfight ready to be tabbed, but since 
most live videos of that start after the song has already started, I'm waiting to hear 
the start
of the song to submit that tab.

Hope any part of this helped with learning the song.
Comments