Sick Puppies - Deliverance Chords & Tabs

 

Deliverance Chords & Tabs

Sick Puppies Chords & Tabs

Version: 1 Type: Bass Tab 0 ratings
1 star 2 stars 3 stars 4 stars 5 stars
comments

Deliverance Bass Tab

I'm thinking this is a C-drop but I'm not sure,
if it doesn't work for you try a different drop, but
these are the tabs

Note: 
If you are a beginer bassist, or a bassist who does not 
know how to slap, this song doesn't show Emma's "Crazy side"
so if you don't know how to slap its okay, its not that big
a difference, play it with your fingers (or a pick)and it
sounds just as good.

Things you will need to know:
p= pull off
r= rest
~= let ring(the more of these there are the longer you let it ring)
/=slide down
s=slap


Intro(x2)
|------------------------------------------------------|
|------------------------------------------------------|
|------------------------------------------------------|
|-3-3-3-3r---3-3-3-3r---3-3-3-3r---0-0-0-0r---0-0-0-0r-|

Verse
|--------------------------------------------------------|
|--------------------------------------------------------|
|--------------------------------------------------------|
|-5-5-5-5r---5-5-5-5r----5-5-5-5r---3-3-3-3r---3-3-3r-0~-|(x2)

|------------------------------------------------------|
|------------------------------------------------------|
|------------------------------------------------------|
|-3-3-3-3r---3-3-3-3r---3-3-3-3r---0-0-0-0r---0-0-0-0r-|(x2)

Pre-chorus
|----------------------------------|
|----------------------------------|
|----------------------------------|
|-1-1-1-1/3-3-3-3/5-5-5-5-/7-7-7-7-|

Chorus
|-----------------------------------|
|-----------------------------------|
|-----------------------------------|
|0~---1~-----3~----5~---0~~--7~--r--|

|-----------------------------------------|
|-----------------------------------------|
|-----------------------------------------|
|0~---1~-----3~----5~---7~~---0s-0s-0s-0s-|

Post-Chorus
|------------------------------------------------------|
|------------------------------------------------------|
|------------------------------------------------------|
|-3-3-3-3r---3-3-3-3r---3-3-3-3r---0-0-0-0r---0-0-0-0r-|

|-------------------------------------------------|
|-------------------------------------------------|
|-------------------------------------------------|
|-3-3-3-3r---3-3-3-3r---3-3-3-3r---0-0-0-0r--1/12-|

Verse2
|--------------------------------------------------------|
|--------------------------------------------------------|
|--------------------------------------------------------|
|-5-5-5-5r---5-5-5-5r----5-5-5-5r---3-3-3-3r---3-3-3r-0~-|(x2)

|------------------------------------------------------|
|------------------------------------------------------|
|------------------------------------------------------|
|-3-3-3-3r---3-3-3-3r---3-3-3-3r---0-0-0-0r---0-0-0-0r-|(x2)
[ Tab from: http://www.guitartabs.cc/tabs/s/sick_puppies/deliverance_btab.html ]
Pre-chorus
|----------------------------------|
|----------------------------------|
|----------------------------------|
|-1-1-1-1/3-3-3-3/5-5-5-5-/7-7-7-7-|

Chorus
|-----------------------------------|
|-----------------------------------|
|-----------------------------------|
|0~---1~-----3~----5~---0~~--7~--r--|

|------------------------------------------|
|------------------------------------------|
|------------------------------------------|
|0~---1~-----3~----5~---7~~---0s-0s---0s-0s|

Bridge
|------|
|------|
|------|
|-1/12-|

|-------------------------------------|
|-------------------------------------|
|-------------------------------------|
|--0~1~--0~/3--0~/5~---7s-7s---0s-0s--|

|----------------------------------|
|----------------------------------|
|----------------------------------|
|--0~1~--0~/3-0s-0s-0s-0s-0s-0s-0s-|

|---------------------------------|
|---------------------------------|
|---------------------------------|
|-7p6--7p6--7p6--7p6--0s-0s-0s-0s-|

Post-Bridge
((Rest then come in with a slide down))
|----------------------------|
|----------------------------|
|----------------------------|
|--/12---0-0-0-0r---0-0-0-0r-|

|-----------------------------------|
|-----------------------------------|
|-----------------------------------|
|-3-3-3-3r---3-3-3-3r---3-3-0-0r----|

Pre-chorus
|----------------------------------|
|----------------------------------|
|----------------------------------|
|-1-1-1-1/3-3-3-3/5-5-5-5-/7-7-7-7-|

|----------------------------------|
|----------------------------------|
|----------------------------------|
|-1-1-1-1-1-1-1-1-3-3-3-3-3-3-3----|

Chorus
|-----------------------------------|
|-----------------------------------|
|-----------------------------------|
|0~---1~-----3~----5~---0~~--7~--r--|

|-----------------------------------|
|-----------------------------------|
|-----------------------------------|
|0~---1~-----3~----5~---7~~---0s-0s-|

Ending
|------------------------------------------------------|
|------------------------------------------------------|
|------------------------------------------------------|
|-3-3-3-3r---3-3-3-3r---3-3-3-3r---0-0-0-0r---0-0-0-0r-|(x2)

|----------------------------------|
|----------------------------------|
|----------------------------------|
|-1-1-1-1/3-3-3-3/5-5-5-5-/7-7-7-7-|

Ending Chorus
|----------------------------------------------|
|----------------------------------------------|
|----------------------------------------------|
|0~---1~---3~----5~---0~~--7p6-7p6-7p6-7p6/1~--|

|-----------------------------------------|
|-----------------------------------------|
|-----------------------------------------|
|0~---1~-----3~----5~---7~~---0s-0s--0s-0s|


Have fun playing this :)
-WarWickWereWolf
Comments