Sick Puppies - Cancer Chords & Tabs

 

Cancer Chords & Tabs

Sick Puppies Chords & Tabs

Version: 1 Type: Tab 0 ratings
1 star 2 stars 3 stars 4 stars 5 stars
comments

Cancer Tab

Song: Cancer
Artist: Sick Puppies
Tabber: Max Deuble (d__o__a@hotmail.com)

I absolutely love the new Sick Puppies album - and this is one of my favourite songs off 
album. I noticed that no one had tabbed it yet so i decided to submit one myself. There 
also a Powertab version that i have uploaded on this site as well.

If you want to know the rhythm i recommend listening to the song - it rocks. Also if you 
on YouTube for Sick Puppies and Cancer you should find an excellent video of someone 
this song.

Any comments or suggestions, or if you just want to talk email me at d__o__a@hotmail.com or
www.myspace.com/maxpd

All Guitars tuned Drop D down 1 step - (CGCFAD)

  Q=95
 4/4
  Gtr I                       Gtrs II, III
|-------------------------------|
|-------------------------------|
|-------------------------------|
|-------------------------------|
|-----4-----3-----4-----3-----3-|
|-5-5---5-5---5-5---5-5---5-5-3-|


    Gtrs II, III
                                   4x
||---------------------------------||
||o-------------------------------o||
||---------------------------------||
||---------------------------------||
||o-----4-----3-----4-----3-----3-o||
||--5-5---5-5---5-5---5-5---5-5-3--||


    Gtr II
||------------|------------------------|
||o-----------|------------------------|
||------------|------------------------|
||------------|------------------------|
||o-5\--------|-----x-x-x-x--x-x-x-x-3-|
||--5\--------|-----x-x-x-x--x-x-x-x-3-|


  Gtrs II, III
|-------------------------------|---------------------------------||
|-------------------------------|--------------------------------o||
|-------------------------------|---------------------------------||
|-------------------------------|---------------------------------||
|-----4-----3-----4-----3-----3-|-----4-----3-----4-----3-----3--o||
|-5-5---5-5---5-5---5-5---5-5-3-|-5-5---5-5---5-5---5-5---5-5-3---||


   3/4
    Gtr III
||--------------------|-------------------|
||o-------------------|-------------------|
||--------------------|-------------------|
||--------------------|-------------------|
||o---4---3-----x-x-x-|---4---3-----x-x-x-|
||--5---5---5-3-x-x-x-|-5---5---5-6-x-x-x-|


                      1.
|-------------------|-------------------||
|-------------------|------------------o||
|-------------------|-------------------||
|-------------------|-------------------||
|---4---3-----x-x-x-|---4---3----0-0-0-o||
|-5---5---5-3-x-x-x-|-5---5---5--0-0-0--||


  2.
 4/4
|---------------|
|---------------|
|---------------|
|---------------|
|---4---3-------|
|-5---5---5-----|


  Gtr III
|--------------------|--------------------|
|--------------------|--------------------|
|--------------------|--------------------|
|-1--1--1--1-1-1-1-1-|-3--3--3--3-3-3-3-3-|
|-1--1--1--1-1-1-1-1-|-3--3--3--3-3-3-3-3-|
|-1--1--1--1-1-1-1-1-|-3--3--3--3-3-3-3-3-|
|
| Gtr II
|--------------------|--------------------|
|--------------------|--------------------|
|--------------------|--------------------|
|-1--1--1--1-1-1-1-1-|-3--3--3--3-3-3-3-3-|
|-1--1--1--1-1-1-1-1-|-3--3--3--3-3-3-3-3-|
|-1--1--1--1-1-1-1-1-|-3--3--3--3-3-3-3-3-|


|--------------------|-----------------------------------|
|--------------------|-----------------------------------|
|--------------------|-----------------------------------|
|-5--5--5--5-5-5-5-5-|-8-------8------8---8-8---8----8-8-|
|-5--5--5--5-5-5-5-5-|-8-------8------8---8-8---8----8-8-|
|-5--5--5--5-5-5-5-5-|-8-------8------8---8-8---8----8-8-|
|
|                      PM----------------------------------|
|--------------------|-------------------------------------|
|--------------------|-------------------------------------|
|--------------------|-------------------------------------|
|-5--5--5--5-5-5-5-5-|-8-7-8-7-8-10-8-7-8-7-8-7-8-10-8-7---|
|-5--5--5--5-5-5-5-5-|-------------------------------------|
|-5--5--5--5-5-5-5-5-|-------------------------------------|


|--------------------|------------------------|
|--------------------|------------------------|
|--------------------|------------------------|
|-1--1--1--1-1-1-1-1-|-3--3--3--x-x-x-x-x-x-x-|
|-1--1--1--1-1-1-1-1-|-3--3--3--x-x-x-x-x-x-x-|
|-1--1--1--1-1-1-1-1-|-3--3--3--x-x-x-x-x-x-x-|
|
|--------------------|------------------------|
|--------------------|------------------------|
|--------------------|------------------------|
|-1--1--1--1-1-1-1-1-|-3--3--3--x-x-x-x-x-x-x-|
|-1--1--1--1-1-1-1-1-|-3--3--3--x-x-x-x-x-x-x-|
|-1--1--1--1-1-1-1-1-|-3--3--3--x-x-x-x-x-x-x-|


  Gtrs II, III
|-------------------------------|
|-------------------------------|
|-------------------------------|
|-------------------------------|
|-----4-----3-----4-----3-----3-|
|-5-5---5-5---5-5---5-5---5-5-3-|


|---------------------------|
|---------------------------|
|---------------------------|
|---------------------------|
|-----4-----3-----4--4--4-3-|
|-5-5---5-5---5-5---------3-|


  Gtr II
|-----------|-------------------------------------------|
|-----------|-----20-20-20-20-20-20-20-20-20-20-20-20---|
|-----------|-------------------------------------------|
|-----------|-------------------------------------------|
|-5\--------|-----------------------------------------3-|
|-5\--------|-----------------------------------------3-|


  Gtrs II, III
|-------------------------------|--------------------------------|
|-------------------------------|--------------------------------|
|-------------------------------|--------------------------------|
|-------------------------------|--------------------------------|
|-----4-----3-----4-----3-----3-|-----4-----3-----4-----3-----3--|
|-5-5---5-5---5-5---5-5---5-5-3-|-5-5---5-5---5-5---5-5---5-5-3--|


  Gtr II
|-----------|------------------------|
|-----------|------------------------|
|-----------|------------------------|
|-----------|------------------------|
|-5\--------|-----x-x-x-x--x-x-x-x-3-|
|-5\--------|-----x-x-x-x--x-x-x-x-3-|


  Gtrs II, III
|-------------------------------|--------------------------------|
|-------------------------------|--------------------------------|
|-------------------------------|--------------------------------|
|-------------------------------|--------------------------------|
|-----4-----3-----4-----3-----3-|-----4-----3-----4-----3-----3--|
|-5-5---5-5---5-5---5-5---5-5-3-|-5-5---5-5---5-5---5-5---5-5-3--|


 3/4
  Gtr III
|-------------------|-------------------|
|-------------------|-------------------|
|-------------------|-------------------|
|-------------------|-------------------|
|---4---3-----x-x-x-|---4---3-----x-x-x-|
|-5---5---5-3-x-x-x-|-5---5---5-6-x-x-x-|


                     4/4
|-------------------|---------------|
|-------------------|---------------|
|-------------------|---------------|
|-------------------|---------------|
|---4---3-----x-x-x-|---4---3-------|
|-5---5---5-3-x-x-x-|-5---5---5-----|


    Gtr III
||---------------------|--------------------|
||o--------------------|--------------------|
||---------------------|--------------------|
||--1--1--1--1-1-1-1-1-|-3--3--3--3-3-3-3-3-|
||o-1--1--1--1-1-1-1-1-|-3--3--3--3-3-3-3-3-|
||--1--1--1--1-1-1-1-1-|-3--3--3--3-3-3-3-3-|
|
|   Gtr II
||---------------------|--------------------|
||o--------------------|--------------------|
||---------------------|--------------------|
||--1--1--1--1-1-1-1-1-|-3--3--3--3-3-3-3-3-|
||o-1--1--1--1-1-1-1-1-|-3--3--3--3-3-3-3-3-|
||--1--1--1--1-1-1-1-1-|-3--3--3--3-3-3-3-3-|

[ Tab from: http://www.guitartabs.cc/tabs/s/sick_puppies/cancer_tab.html ]
  1.
|--------------------|------------------------------------||
|--------------------|-----------------------------------o||
|--------------------|------------------------------------||
|-5--5--5--5-5-5-5-5-|-8-------8------8---8-8---8----8-8--||
|-5--5--5--5-5-5-5-5-|-8-------8------8---8-8---8----8-8-o||
|-5--5--5--5-5-5-5-5-|-8-------8------8---8-8---8----8-8--||
|
| Gtr II
|                      PM------------------------------------|
|--------------------|---------------------------------------|
|--------------------|-----------------------------------o---|
|--------------------|---------------------------------------|
|-5--5--5--5-5-5-5-5-|-8-7-8-7-8-10-8-7-8-7-8-7-8-10-8-7-----|
|-5--5--5--5-5-5-5-5-|-----------------------------------o---|
|-5--5--5--5-5-5-5-5-|---------------------------------------|


  2.
|---------------------------------|
|---------------------------------|
|-7-7-7-7-8-8-8-8-7-7-7-7-8-8-8-8-|
|-x-x-x-x-x-x-x-x-x-x-x-x-x-x-x-x-|
|-5-5-5-5-6-6-6-6-5-5-5-5-6-6-6-6-|
|---------------------------------|


|-------------------------------------------------|
|-------------------------------------------------|
|-10-10-10-10-12-12-12-12-10-10-10-10-12-12-12-12-|
|--x--x--x--x--x--x--x--x--x--x--x--x--x--x--x--x-|
|--8--8--8--8-10-10-10-10--8--8--8--8-10-10-10-10-|
|-------------------------------------------------|


  Gtrs II, III
|--------------------------|---------------------------|
|--------------------------|---------------------------|
|--------------------------|---------------------------|
|-1-x-x-x-x---1-x-x-x-x----|-3-x-x-x-x---3-x-x-x-x-----|
|-1-x-x-x-x---1-x-x-x-x----|-3-x-x-x-x---3-x-x-x-x-----|
|-1-x-x-x-x---1-x-x-x-x----|-3-x-x-x-x---3-x-x-x-x-----|


                             Gtr II
                             PM----------------------------------|
|--------------------------|-------------------------------------|
|--------------------------|-------------------------------------|
|--------------------------|-------------------------------------|
|-5-x-x-x-x---5-x-x-x-x----|-8-7-8-7-8-10-8-7-8-7-8-7-8-10-8-7---|
|-5-x-x-x-x---5-x-x-x-x----|-------------------------------------|
|-5-x-x-x-x---5-x-x-x-x----|-------------------------------------|


  Gtr II
  PM-------------------------------------------|
|----------------------------------------------|
|----------------------------------------------|
|----------------------------------------------|
|-8-7-8---7---8-10--8-7-8---7---8-7-8-10-8-7---|
|----------------------------------------------|
|----------------------------------------------|
|
| Gtr III
|--------------------------------------------|
|--------------------------------------------|
|--------------------------------------------|
|-----x-x-x-x-----------x-x-x-x--------------|
|-1---x-x-x-x-------1---x-x-x-x--------------|
|-1---x-x-x-x-------1---x-x-x-x--------------|


  PM-------------------------------------------|
|----------------------------------------------|
|----------------------------------------------|
|----------------------------------------------|
|-8-7-8---7---8-10--8-7-8---7---8-7-8-10-8-7---|
|----------------------------------------------|
|----------------------------------------------|
|
|--------------------------------------------|
|--------------------------------------------|
|--------------------------------------------|
|-----x-x-x-x-----------x-x-x-x--------------|
|-3---x-x-x-x-------3---x-x-x-x--------------|
|-3---x-x-x-x-------3---x-x-x-x--------------|


  PM-------------------------------------------|
|----------------------------------------------|
|----------------------------------------------|
|----------------------------------------------|
|-8-7-8---7---8-10--8-7-8---7---8-7-8-10-8-7---|
|----------------------------------------------|
|----------------------------------------------|
|
|--------------------------------------------|
|--------------------------------------------|
|--------------------------------------------|
|-----x-x-x-x-----------x-x-x-x--------------|
|-5---x-x-x-x-------5---x-x-x-x--------------|
|-5---x-x-x-x-------5---x-x-x-x--------------|


  PM-------------------------------------------|
|----------------------------------------------|
|----------------------------------------------|
|----------------------------------------------|
|-8-7-8---7---8-10--8-7-8---7---8-7-8-10-8-7---|
|----------------------------------------------|
|----------------------------------------------|
|
|--------------------------------------------|
|--------------------------------------------|
|--------------------------------------------|
|-----x-x-x-x-----------x-x-x-x--------------|
|-8---x-x-x-x-------8---x-x-x-x--------------|
|-8---x-x-x-x-------8---x-x-x-x--------------|


  Gtr II
   ~~~~~~~~~~~~~~~~
|-----------|---------|
|-----------|---------|
|-10--------|-(10)----|
|-----------|---------|
|-----------|---------|
|-----------|---------|


    ~~~~
|-------------------------|
|-------------------------|
|-(10)--------------------|
|---------x-x-x-x-x-x-x-x-|
|---------x-x-x-x-x-x-x-x-|
|---------x-x-x-x-x-x-x-x-|


    Gtrs II, III
                                   3x
||---------------------------------||----------------------------|
||o-------------------------------o||----------------------------|
||---------------------------------||----------------------------|
||---------------------------------||----------------------------|
||o-----4-----3-----4-----3-----3-o||-----4-----3-----4--4--4-3--|
||--5-5---5-5---5-5---5-5---5-5-3--||-5-5---5-5---5-5---------3--|


                                   3x
||---------------------------------||-----------------------|
||o-------------------------------o||-----------------------|
||---------------------------------||-----------------------|
||---------------------------------||-----------------5--3--|
||o-----4-----3-----4-----3-------o||-----4-----3-----5--3--|
||--5-5---5-5---5-5---5-5---5-5-6--||-5-5---5-5---5-5-5--3--|


    Gtr III
||---------------------|--------------------|
||o--------------------|--------------------|
||---------------------|--------------------|
||--1--1--1--1-1-1-1-1-|-3--3--3--3-3-3-3-3-|
||o-1--1--1--1-1-1-1-1-|-3--3--3--3-3-3-3-3-|
||--1--1--1--1-1-1-1-1-|-3--3--3--3-3-3-3-3-|
|
|   Gtr II
||---------------------|--------------------|
||o--------------------|--------------------|
||---------------------|--------------------|
||--1--1--1--1-1-1-1-1-|-3--3--3--3-3-3-3-3-|
||o-1--1--1--1-1-1-1-1-|-3--3--3--3-3-3-3-3-|
||--1--1--1--1-1-1-1-1-|-3--3--3--3-3-3-3-3-|


  1.
|--------------------|-------------------------------------------||
|--------------------|------------------------------------------o||
|--------------------|-------------------------------------------||
|-5--5--5--5-5-5-5-5-|-8-------8------8---x-x-x-x-x-x-8----------||
|-5--5--5--5-5-5-5-5-|-8-------8------8---x-x-x-x-x-x-8---------o||
|-5--5--5--5-5-5-5-5-|-8-------8------8---x-x-x-x-x-x-8----------||
|
| Gtr II
|                      PM-------------------------------------------|
|--------------------|----------------------------------------------|
|--------------------|------------------------------------------o---|
|--------------------|----------------------------------------------|
|-5--5--5--5-5-5-5-5-|-8-7-8-7-8-10-8-7-8-7---8---7---8-10-8-7------|
|-5--5--5--5-5-5-5-5-|------------------------------------------o---|
|-5--5--5--5-5-5-5-5-|----------------------------------------------|


  2.
|---------------------------------|
|---------------------------------|
|-7-7-7-7-8-8-8-8-7-7-7-7-8-8-8-8-|
|-x-x-x-x-x-x-x-x-x-x-x-x-x-x-x-x-|
|-5-5-5-5-6-6-6-6-5-5-5-5-6-6-6-6-|
|---------------------------------|


|-------------------------------------------------|
|-------------------------------------------------|
|-10-10-10-10-12-12-12-12-10-10-10-10-12-12-12-12-|
|--x--x--x--x--x--x--x--x--x--x--x--x--x--x--x--x-|
|--8--8--8--8-10-10-10-10--8--8--8--8-10-10-10-10-|
|-------------------------------------------------|


  Gtrs II, III
|---------------------------|-----------------------------*|
|---------------------------|-----------------------------*|
|---------------------------|-----------------------------*|
|-1-x-x-x-x---1-x-x-x-x--1--|-3-x-x-x-x---3-x-x-x-x--3/---*|
|-1-x-x-x-x---1-x-x-x-x--1--|-3-x-x-x-x---3-x-x-x-x--3/---*|
|-1-x-x-x-x---1-x-x-x-x--1--|-3-x-x-x-x---3-x-x-x-x--3/---*|
Comments