Sick Puppies - Asshole Father Chords & Tabs

 

Asshole Father Chords & Tabs

Sick Puppies Chords & Tabs

Version: 1 Type: Chords 0 ratings
1 star 2 stars 3 stars 4 stars 5 stars
comments

Asshole Father Chords

   
-------------------------------------------------------------------------------
			  asshole father  sick puppies
------------------------------------------------------------------------------
Tabbed by:nathangtr
Email:silverchair_69@hotmail.com or www.myspace.com/doristherocker

Tuning:drop c  i worked it out the proper way that shim does and i checked just to make
hope you have fun if you have any questions please dont hesitate to email me at
have a nice day) just listen to the song to figure out the strumming pattern :) tune 
guitar to CGCFAD
intro/verse


  A#add9     F     G7sus4
e|--3--------3-------0------------------------------------------------------------|
B|--3--------3-------3------------------------------------------------------------|
G|--0--------0-------0------------------------------------------------------------|
D|--2--------0-------2------------------------------------------------------------|
A|--3--------2-------0------------------------------------------------------------|
E|-------------------0------------------------------------------------------------|
[ Tab from: http://www.guitartabs.cc/tabs/s/sick_puppies/asshole_father_crd.html ]
chours
   A#7M/C  F     Gm
e|--0------3-----0-----------------------------------------------------------|
B|--0------3-----1-----------------------------------------------------------|
G|--5------0-----2-----------------------------------------------------------|
D|--5------0-----2-----------------------------------------------------------|
A|--3------2-----------------------------------------------------------------|
E|--0------------------------------------------------------------------------|

verse 2

A#add9     F     G7sus4
e|--3--------3-------0------------------------------------------------------------|
B|--3--------3-------3------------------------------------------------------------|
G|--0--------0-------0------------------------------------------------------------|
D|--2--------0-------2------------------------------------------------------------|
A|--3--------2-------0------------------------------------------------------------|
E|-------------------0------------------------------------------------------------|

thats all ive got right now i still have to figure out the bridge and stuff but this
for someone who wants to finish it ill update it when i finish it have fun and please 
if
u figure out the rest have a nice day :)

| /  slide up
| \  slide down
| h  hammer-on
| p  pull-off
| ~  vibrato
| +  harmonic
| x  Mute note
===============================================================================
Comments