Sick Puppies - All The Same Chords & Tabs

 

All The Same Chords & Tabs

Sick Puppies Chords & Tabs

Version: 7 Type: Tab 0 ratings
1 star 2 stars 3 stars 4 stars 5 stars
comments

All The Same Tab

Gah! why doesn't anyone have this right yet lol. the version before this is good but 
they play this song, basically its made up with 4 fret stretches, i know it seems weird but 
is how they do it, and this song is played with one guitar not 5! when its done live anyway.

Drop C Tuning (CGCFAD)

Intro
D---------------|--------------|
A---------------|--------------|
F---------------|--------------|
C-12-12-12-12---|-12-12-12-12--|
G--9--9--9--9---|--9--9--9--9--|
C--0--0--0--0---|--0--0--0--0--|

Verse
|---------------|--------------|---------------|---------------|
|---------------|--------------|---------------|---------------|
|---------------|--------------|---------------|---------------|
|-12-12-12-12---|-12-12-12-12--|--12-12-12-12--|--12-12-12-12--|
|--9--9--9--9---|--9--9--9--9--|---9--9--9--9--|---9--9--9--9--|
|--0--0--0--0---|--0--0--0--0--|--11-11-11-11--|--11-11-11-11--|

|--------------|--------------|--------------|--------------|
|--------------|--------------|--------------|--------------|
|-11-11-11-11--|-11-11-11-11--|--7--7--7--7--|--7--7--7--7--|
|--9--9--9--9--|--9--9--9--9--|--5--5--5--5--|--5--5--5--5--|
|--9--9--9--9--|--9--9--9--9--|--5--5--5--5--|--5--5--5--5--|
|--9--9--9--9--|--9--9--9--9--|--5--5--5--5--|--5--5--5--5--|

|---------------|--------------|---------------|---------------|
|---------------|--------------|---------------|---------------|
|---------------|--------------|---------------|---------------|
|-12-12-12-12---|-12-12-12-12--|--12-12-12-12--|--12-12-12-12--|
|--9--9--9--9---|--9--9--9--9--|---9--9--9--9--|---9--9--9--9--|
|--0--0--0--0---|--0--0--0--0--|--11-11-11-11--|--11-11-11-11--|

|--------------|--------------|--------------|--------------|
|--------------|--------------|--------------|--------------|
|-11-11-11-11--|-11-11-11-11--|--7--7--7--7--|--7--7--7--7--|
|--9--9--9--9--|--9--9--9--9--|--5--5--5--5--|--5--5--5--5--|
|--9--9--9--9--|--9--9--9--9--|--5--5--5--5--|--5--5--5--5--|
|--9--9--9--9--|--9--9--9--9--|--5--5--5--5--|--5--5--5--5--|


Pre-Chorus

|-------------|-------------|-----------------|
|-------------|-------------|-----------------|
|-------------|-------------|-----------------|
|--5-0-0-0-0--|--5-0-0-0-0--|--5-0-0-0-0-(0)--|
|--5-0-0-0-0--|--5-0-0-0-0--|--5-0-0-0-0-(0)--|
|--5-0-0-0-0--|--5-0-0-0-0--|--5-0-0-0-0-(0)--|

Chorus
|--------------------------------------------------|
|--------------------------------------------------|
|--------------------------------------------------|
|-12-12-12-12-11-11-11-11--9--9--9--9--9--9--9--9--|
|--9--9--9--9--9--9--9--9--9--9--9--9--9--9--9--9--|
|--9--9--9--9--9--9--9--9--9--9--9--9--9--9--9--9--|

|--------------------------------------------------|
|--------------------------------------------------|
|--------------------------------------------------|
|--9--9--9--9--7--7--7--7--5--5--5--5--5--5--5--5--|
|--5--5--5--5--5--5--5--5--5--5--5--5--5--5--5--5--|
|--5--5--5--5--5--5--5--5--5--5--5--5--5--5--5--5--|

|---------------------------------------------------|
|---------------------------------------------------|
|-11-11-11-11--9--9--9--9--12-12-12-12--7--7--7--7--|
|--x--x--x--x--x--x--x--x--x--x--x--x---x--x--x--x--|
|--9--9--9--9--7--7--7--7--10-10-10-10--5--5--5--5--|
|---------------------------------------------------|

|--------------------------------------------------|
|--------------------------------------------------|
|--------------------------------------------------|
|--7--7--7--7--9--9--9--9-11-11-11-11-11-11-11-11--|
|--7--7--7--7--7--7--7--7--7--7--7--7--7--7--7--7--|
|--7--7--7--7--7--7--7--7--7--7--7--7--7--7--7--7--|

|--------------------------------------------------|
|--------------------------------------------------|
|--------------------------------------------------|
|-12-12-12-12-11-11-11-11--9--9--9--9--9--9--9--9--|
|--9--9--9--9--9--9--9--9--9--9--9--9--9--9--9--9--|
|--9--9--9--9--9--9--9--9--9--9--9--9--9--9--9--9--|

|--------------------------------------------------|
|--------------------------------------------------|
|--------------------------------------------------|
|--9--9--9--9--7--7--7--7--5--5--5--5--5--5--5--5--|
|--5--5--5--5--5--5--5--5--5--5--5--5--5--5--5--5--|
|--5--5--5--5--5--5--5--5--5--5--5--5--5--5--5--5--|

|---------------------------------------------------|
|---------------------------------------------------|
|-11-11-11-11--9--9--9--9--12-12-12-12--7--7--7--7--|
|--x--x--x--x--x--x--x--x--x--x--x--x---x--x--x--x--|
|--9--9--9--9--7--7--7--7--10-10-10-10--5--5--5--5--|
|---------------------------------------------------|


|-----------------------------|
|-----------------------------|
|-----------------------------|
|--7--7--7--7--9--9--9--9-11--|
|--7--7--7--7--7--7--7--7--7--|
|--7--7--7--7--7--7--7--7--7--|

Verse 2
|-----|
|-----|
|-----|
|-12--|let this ring for a bit
|--9--|
|--0--|

Then when the words start...
|---------------|--------------|---------------|---------------|
|---------------|--------------|---------------|---------------|
|---------------|--------------|---------------|---------------|
|-12-12-12-12---|-12-12-12-12--|--12-12-12-12--|--12-12-12-12--|
|--9--9--9--9---|--9--9--9--9--|---9--9--9--9--|---9--9--9--9--|
|--0--0--0--0---|--0--0--0--0--|--11-11-11-11--|--11-11-11-11--|

|--------------|--------------|--------------|--------------|
|--------------|--------------|--------------|--------------|
|-11-11-11-11--|-11-11-11-11--|--7--7--7--7--|--7--7--7--7--|
|--9--9--9--9--|--9--9--9--9--|--5--5--5--5--|--5--5--5--5--|
|--9--9--9--9--|--9--9--9--9--|--5--5--5--5--|--5--5--5--5--|
|--9--9--9--9--|--9--9--9--9--|--5--5--5--5--|--5--5--5--5--|

|---------------|--------------|---------------|---------------|
|---------------|--------------|---------------|---------------|
|---------------|--------------|---------------|---------------|
|-12-12-12-12---|-12-12-12-12--|--12-12-12-12--|--12-12-12-12--|
|--9--9--9--9---|--9--9--9--9--|---9--9--9--9--|---9--9--9--9--|
|--0--0--0--0---|--0--0--0--0--|--11-11-11-11--|--11-11-11-11--|

|--------------|--------------|--------------|--------------|
|--------------|--------------|--------------|--------------|
|-11-11-11-11--|-11-11-11-11--|--7--7--7--7--|--7--7--7--7--|
|--9--9--9--9--|--9--9--9--9--|--5--5--5--5--|--5--5--5--5--|
|--9--9--9--9--|--9--9--9--9--|--5--5--5--5--|--5--5--5--5--|
|--9--9--9--9--|--9--9--9--9--|--5--5--5--5--|--5--5--5--5--|


Pre-Chorus (distortion from here on)
|-------------|-------------|-----------------|
|-------------|-------------|-----------------|
|-------------|-------------|-----------------|
|--5-0-0-0-0--|--5-0-0-0-0--|--5-0-0-0-0-(0)--|
|--5-0-0-0-0--|--5-0-0-0-0--|--5-0-0-0-0-(0)--|
|--5-0-0-0-0--|--5-0-0-0-0--|--5-0-0-0-0-(0)--|

|---------------------------|
|---------------------------|
|---------------------------|
|--x-x-x-x-x-x-x-x-x-x-x-x--|
|--x-x-x-x-x-x-x-x-x-x-x-x--|
|--x-x-x-x-x-x-x-x-x-x-x-x--|

Chours
|--------------------------------------------------|
|--------------------------------------------------|
|--------------------------------------------------|
|-12-12-12-12-11-11-11-11--9--9--9--9--9--9--9--9--|
|--9--9--9--9--9--9--9--9--9--9--9--9--9--9--9--9--|
|--9--9--9--9--9--9--9--9--9--9--9--9--9--9--9--9--|

|--------------------------------------------------|
|--------------------------------------------------|
|--------------------------------------------------|
|--9--9--9--9--7--7--7--7--5--5--5--5--5--5--5--5--|
|--5--5--5--5--5--5--5--5--5--5--5--5--5--5--5--5--|
|--5--5--5--5--5--5--5--5--5--5--5--5--5--5--5--5--|
[ Tab from: http://www.guitartabs.cc/tabs/s/sick_puppies/all_the_same_tab_ver_7.html ]
|---------------------------------------------------|
|---------------------------------------------------|
|-11-11-11-11--9--9--9--9--12-12-12-12--7--7--7--7--|
|--x--x--x--x--x--x--x--x--x--x--x--x---x--x--x--x--|
|--9--9--9--9--7--7--7--7--10-10-10-10--5--5--5--5--|
|---------------------------------------------------|


|--------------------------------------------------|
|--------------------------------------------------|
|--------------------------------------------------|
|--7--7--7--7--9--9--9--9-11-11-11-11-11-11-11-11--|
|--7--7--7--7--7--7--7--7--7--7--7--7--7--7--7--7--|
|--7--7--7--7--7--7--7--7--7--7--7--7--7--7--7--7--|

|--------------------------------------------------|
|--------------------------------------------------|
|--------------------------------------------------|
|-12-12-12-12-11-11-11-11--9--9--9--9--9--9--9--9--|
|--9--9--9--9--9--9--9--9--9--9--9--9--9--9--9--9--|
|--9--9--9--9--9--9--9--9--9--9--9--9--9--9--9--9--|

|--------------------------------------------------|
|--------------------------------------------------|
|--------------------------------------------------|
|--9--9--9--9--7--7--7--7--5--5--5--5--5--5--5--5--|
|--5--5--5--5--5--5--5--5--5--5--5--5--5--5--5--5--|
|--5--5--5--5--5--5--5--5--5--5--5--5--5--5--5--5--|

|---------------------------------------------------|
|---------------------------------------------------|
|-11-11-11-11--9--9--9--9--12-12-12-12--7--7--7--7--|
|--x--x--x--x--x--x--x--x--x--x--x--x---x--x--x--x--|
|--9--9--9--9--7--7--7--7--10-10-10-10--5--5--5--5--|
|---------------------------------------------------|

|--------------------------------------------------|
|--------------------------------------------------|
|--------------------------------------------------|
|--7--7--7--7--9--9--9--9-11-11-11-11-11-11-11-11--|
|--7--7--7--7--7--7--7--7--7--7--7--7--7--7--7--7--|
|--7--7--7--7--7--7--7--7--7--7--7--7--7--7--7--7--|

Interlude
|-------------|-------------|------------|
|-------------|-------------|------------|
|-------------|-------------|------------|
|--0-5-5-5-5--|--0-5-5-5-5--|-0-5-5-5-5--|
|--0-5-5-5-5--|--0-5-5-5-5--|-0-5-5-5-5--|
|--0-5-5-5-5--|--0-5-5-5-5--|-0-5-5-5-5--|

Solo
|-------------------------------------------------------|
|--7-b-r-5-3-3-3-5-5-5-7-7-7--7b-r-5-2-2-2-3-3-3--------|
|------------------------------------------------2-2-2--|
|-------------------------------------------------------|
|-------------------------------------------------------|
|-------------------------------------------------------|

|----------------------|
|--7b-r-5-3-3-3-7b-8b--|
|----------------------|
|----------------------|
|----------------------|
|----------------------|

Solo end
|-------------|-------------|-------------|
|-------------|-------------|-------------|
|-------------|-------------|-------------|
|--5-0-0-0-0--|--5-0-0-0-0--|--5-0-0-0-0--|
|--5-0-0-0-0--|--5-0-0-0-0--|--5-0-0-0-0--|
|--5-0-0-0-0--|--5-0-0-0-0--|--5-0-0-0-0--|

Bridge

"wrong or right"
|--------------------------------------------------|
|--------------------------------------------------|
|--------------------------------------------------|
|--9--9--9--9-11-11-11-11-12-12-12-12-12-12-12-12--|
|--9--9--9--9--9--9--9--9--9--9--9--9--9--9--9--9--|
|--9--9--9--9--9--9--9--9--9--9--9--9--9--9--9--9--|

|--------------------------------------------------|
|--------------------------------------------------|
|--------------------------------------------------|
|--7--7--7--7--9--9--9--9-11-11-11-11-11-11-11-11--|
|--7--7--7--7--7--7--7--7--7--7--7--7--7--7--7--7--|
|--7--7--7--7--7--7--7--7--7--7--7--7--7--7--7--7--|

|-----------------------------------|
|-----------------------------------|
|-----------------------------------|
|--5-5-5-5-7-7-7-7-9-9-9-9-9-9-9-9--|
|--5-5-5-5-5-5-5-5-5-5-5-5-5-5-5-5--|
|--5-5-5-5-5-5-5-5-5-5-5-5-5-5-5-5--|

|-------------|-------------|-------------|
|-------------|-------------|-------------|
|-------------|-------------|-------------|
|--5-0-0-0-0--|--5-0-0-0-0--|--5-0-0-0-0--|
|--5-0-0-0-0--|--5-0-0-0-0--|--5-0-0-0-0--|
|--5-0-0-0-0--|--5-0-0-0-0--|--5-0-0-0-0--|

"in my life"
|--------------------------------------------------|
|--------------------------------------------------|
|--------------------------------------------------|
|--9--9--9--9-11-11-11-11-12-12-12-12-12-12-12-12--|
|--9--9--9--9--9--9--9--9--9--9--9--9--9--9--9--9--|
|--9--9--9--9--9--9--9--9--9--9--9--9--9--9--9--9--|

|--------------------------------------------------|
|--------------------------------------------------|
|--------------------------------------------------|
|--7--7--7--7--9--9--9--9-11-11-11-11-11-11-11-11--|
|--7--7--7--7--7--7--7--7--7--7--7--7--7--7--7--7--|
|--7--7--7--7--7--7--7--7--7--7--7--7--7--7--7--7--|

|-----------------------------------|
|-----------------------------------|
|-----------------------------------|
|--5-5-5-5-7-7-7-7-9-9-9-9-9-9-9-9--|
|--5-5-5-5-5-5-5-5-5-5-5-5-5-5-5-5--|
|--5-5-5-5-5-5-5-5-5-5-5-5-5-5-5-5--|

|-------------|-------------|-------------|
|-------------|-------------|-------------|
|-------------|-------------|-------------|
|--5-0-0-0-0--|--5-0-0-0-0--|--5-0-0-0-0--|
|--5-0-0-0-0--|--5-0-0-0-0--|--5-0-0-0-0--|
|--5-0-0-0-0--|--5-0-0-0-0--|--5-0-0-0-0--|

Last chorus

"go ahead say it"
|--------------------------------------------------|
|--------------------------------------------------|
|--------------------------------------------------|
|-12-12-12-12-11-11-11-11--9--9--9--9--9--9--9--9--|
|--9--9--9--9--9--9--9--9--9--9--9--9--9--9--9--9--|
|--9--9--9--9--9--9--9--9--9--9--9--9--9--9--9--9--|

|--------------------------------------------------|
|--------------------------------------------------|
|--------------------------------------------------|
|--9--9--9--9--7--7--7--7--5--5--5--5--5--5--5--5--|
|--5--5--5--5--5--5--5--5--5--5--5--5--5--5--5--5--|
|--5--5--5--5--5--5--5--5--5--5--5--5--5--5--5--5--|

|------------------------------------------|
|------------------------------------------|
|-11-11-11-11--9--9--9--9--12-12-12-12--7--|
|--x--x--x--x--x--x--x--x--x--x--x--x---x--|
|--9--9--9--9--7--7--7--7--10-10-10-10--5--|
|------------------------------------------|


               (pause)

|--------------------------------------------------|
|--------------------------------------------------|
|--------------------------------------------------|
|--7--7--7--7--9--9--9--9-11-11-11-11-11-11-11-11--|
|--7--7--7--7--7--7--7--7--7--7--7--7--7--7--7--7--|
|--7--7--7--7--7--7--7--7--7--7--7--7--7--7--7--7--|

"and i'll take you for who you are"
|-----------------------------------|
|-----------------------------------|
|-----------------------------------|
|--9-9-9-9-9-9-9-9-9-9-9-9-9-9-9-9--|
|--9-9-9-9-9-9-9-9-9-9-9-9-9-9-9-9--|
|--9-9-9-9-9-9-9-9-9-9-9-9-9-9-9-9--|

|-----------------------------------|
|-----------------------------------|
|-----------------------------------|
|--5-5-5-5-5-5-5-5-5-5-5-5-5-5-5-5--|
|--5-5-5-5-5-5-5-5-5-5-5-5-5-5-5-5--|
|--5-5-5-5-5-5-5-5-5-5-5-5-5-5-5-5--|

|---------------------------------------------------|
|---------------------------------------------------|
|-11-11-11-11--9--9--9--9--12-12-12-12--7--7--7--7--|
|--x--x--x--x--x--x--x--x--x--x--x--x---x--x--x--x--|
|--9--9--9--9--7--7--7--7--10-10-10-10--5--5--5--5--|
|---------------------------------------------------|


|-----------------------------------|
|-----------------------------------|
|-----------------------------------|
|--7-7-7-7-7-7-7-7-7-7-7-7-7-7-7-7--|
|--7-7-7-7-7-7-7-7-7-7-7-7-7-7-7-7--|
|--7-7-7-7-7-7-7-7-7-7-7-7-7-7-7-7--|

|-----|
|-----|
|-----|
|-12--|
|--9--|
|--0--|

I think at the end they do the intro bit but anyway....
Comments