Sick Puppies - All The Same Chords & Tabs

 

All The Same Chords & Tabs

Sick Puppies Chords & Tabs

Version: 4 Type: Tab 0 ratings
1 star 2 stars 3 stars 4 stars 5 stars
comments

All The Same Tab

   
Artist - Sick Puppies

Song - All The Same
That Hugs campaign song.

tabbed by shanE
email - rise.against__@hotmail.com

TUNING
drop C

EADGBE   < standArd
CGCFAD   < drop c

INtro

D|-------------|
A|-------------|
F|-------------|
C|-0-0-0-0-0-0-|
G|-0-0-0-0-0-0-|
C|-0-0-0-0-0-0-|

Verse

D|----------------------------------------------------|
A|----------------------------------------------------|
F|---------------------------4-4-4-4-4-4--------------|
C|-0-0-0-0-0-0--4-4-4-4-4-4--4-4-4-4-4-4--5-5-5-5-5-5-|
G|-0-0-0-0-0-0--4-4-4-4-4-4--2-2-2-2-2-2--5-5-5-5-5-5-| x2
c|-0-0-0-0-0-0--4-4-4-4-4-4---------------5-5-5-5-5-5-|

Pre Chorus.

D|-----------|
A|-----------|
F|-----------|
C|-5-0-0-0---|
G|-5-0-0-0---|
c|-5-0-0-0---| x3

Chorus

D|----------------------------------------------------|
A|----------------------------------------------------|
F|-4-4-4-4-4-4----------------------------------------|
C|-4-4-4-4-4-4--5-5-5-5-5-5--0-0-0-0-0-0--7-7-7-7-7-7-|
G|-2-2-2-2-2-2--5-5-5-5-5-5--0-0-0-0-0-0--7-7-7-7-7-7-|
c|--------------5-5-5-5-5-5--0-0-0-0-0-0--7-7-7-7-7-7-|



After the 2nd chorus is the solo. before solo play the pre chorus


Pre Solo
D|-----------|
A|-----------|
F|-----------|
C|-5-5-5-5---|
G|-5-5-5-5---|
c|-5-5-5-5---|

Solo

D|-----------------------------------------------------------|
A|-8b10r8--------------------8-------------------------------|
F|-------11-7-7-9-9h11--11-----11-9-6--6--7--7-2--2----------|
C|-----------------------------------------------------------|
G|-----------------------------------------------------------|
c|-----------------------------------------------------------|


D|----------------------------|
A|--8-------------------------|
F|----11-9-7-9b11r9-/14-------|
C|----------------------------|
G|----------------------------|
c|----------------------------|


Over the solo

[ Tab from: http://www.guitartabs.cc/tabs/s/sick_puppies/all_the_same_tab_ver_4.html ]
D|-----------------------------------------|
A|-----------------------------------------|
F|-----------------------------------------|
C|-0-0-0-0-0-0--7-7-7-7-7-7--5-5-5-5-5-5---|
G|-0-0-0-0-0-0--7-7-7-7-7-7--5-5-5-5-5-5---| 
c|-0-0-0-0-0-0--7-7-7-7-7-7--5-5-5-5-5-5---|
theres 3 parts of the solo.
one chord for each part



Post Solo
D|-----------|
A|-----------|
F|-----------|
C|-5-0-0-0---|
G|-5-0-0-0---|
c|-5-0-0-0---| x3

Bridge

D|-----------------------------------------|
A|-----------------------------------------|
F|-----------------------------------------|
C|-0-0-0-0-0-0--7-7-7-7-7-7--5-5-5-5-5-5---|
G|-0-0-0-0-0-0--7-7-7-7-7-7--5-5-5-5-5-5---| 
c|-0-0-0-0-0-0--7-7-7-7-7-7--5-5-5-5-5-5---|

D|-----------|
A|-----------|
F|-----------|
C|-5-0-0-0---|
G|-5-0-0-0---|
c|-5-0-0-0---|x3

D|-----------------------------------------|
A|-----------------------------------------|
F|-----------------------------------------|
C|-0-0-0-0-0-0--7-7-7-7-7-7--5-5-5-5-5-5---|
G|-0-0-0-0-0-0--7-7-7-7-7-7--5-5-5-5-5-5---| 
c|-0-0-0-0-0-0--7-7-7-7-7-7--5-5-5-5-5-5---|

D|-----------|
A|-----------|
F|-----------|
C|-5-0-0-0---|
G|-5-0-0-0---|
c|-5-0-0-0---|x3

Then play the chorus again till the end

D|----------------------------------------------------|
A|----------------------------------------------------|
F|-4-4-4-4-4-4----------------------------------------|
C|-4-4-4-4-4-4--5-5-5-5-5-5--0-0-0-0-0-0--7-7-7-7-7-7-|
G|-2-2-2-2-2-2--5-5-5-5-5-5--0-0-0-0-0-0--7-7-7-7-7-7-|
c|--------------5-5-5-5-5-5--0-0-0-0-0-0--7-7-7-7-7-7-|

Theres an acoustic in parts throught the song. You can just 
play the chords in standard.

The chords are the exact same as the electric just in standard.
Just have a look at the chord tab of this on ug.


STRUCTURE
intro
verse
pre chorus
chorus
verse
pre chorus   
							
													
Comments