Sick Puppies - All The Same Chords & Tabs

 

All The Same Chords & Tabs

Sick Puppies Chords & Tabs

Version: 10 Type: Tab 0 ratings
1 star 2 stars 3 stars 4 stars 5 stars
comments

All The Same Tab

   
Okay i noticed that there are two versions to this song. One is the studio recorded
and the other is the version that the Sick puppies play live. the other version just has an
second verse and an interlude added to it. I just tabbed the studio version but the live
is played the same way. This is REALLY how the song is played. 100% sure on the
and chorus for the first guitar. thats how they play it live anyway with just one
the rest is just what i think the second guitar is doing in the background of the 
i
their live performances like 100 times...seriously. Just listen to the song and you'll 
the idea of how the rythm goes.

Tuning: Drop C

Guitar 1

Intro: Clean/Compressed

D|--------------------------------------|
A|--------------------------------------|
F|--11---11---11-11----11---11---11-11--|
C|--x----x----x--x-----x----x----x--x---|
G|--9----9----9--9-----9----9----9--9---|
C|--0----0----0--0-----0----0----0--0---|

D|---------------------------------------------------------|
A|---------------------------------------------------------|
F|--11---11---11-11----11---11---11-11----11---11---11-11--|
C|--x----x----x--x-----x----x----x--x-----x----x----x--x---|
G|--9----9----9--9-----9----9----9--9-----9----9----9--9---|
C|--0----0----0--0-----0----0----0--0-----11---11---11-11--|

D|------------------------------------------------------------|
A|------------------------------------------------------------|
F|--11---11---11-11----11---11---11-11-------11---11---11-11--|
C|--x----x----x--x-----9----9----9--9--------9----9----9--9---|
G|--9----9----9--9-----9----9----9--9--------9----9----9--9---|
C|--11---11---11-11----9----9----9--9--------9----9----9--9---|


D|------------------------------------|
A|------------------------------------|
F|--7----7--- 7--7----7----7----7--7--|
C|--5----5----5--5----5----5----5--5--|
G|--5----5----5--5----5----5----5--5--|
C|--5----5----5--5----5----5----5--5--|

Pre-Chorus: Acoustic (Hold open chord on last strum.)

D|-------------------------------------------------|
A|-------------------------------------------------|
F|--7---------------7---------------7--------------|
C|--5--0--0--0-0----5--0--0--0-0----5--0--0--0-0~--|
G|--5--0--0--0-0----5--0--0--0-0----5--0--0--0-0~--|
C|--5--0--0--0-0----5--0--0--0-0----5--0--0--0-0~--|

Chorus: Acoustic

D|-------------------------------------------------------------------------|
A|-------------------------------------------------------------------------|
F|-------------------------------------------------------------------------|
C|--12-12-12-12-12-12-11-11-11-11-11-11-9--9--9--9--9--9--9--9--9--9--9--9-|
G|--9--9--9--9--9--9--9--9--9--9--9--9--9--9--9--9--9--9--9--9--9--9--9--9-|
C|--9--9--9--9--9--9--9--9--9--9--9--9--9--9--9--9--9--9--9--9--9--9--9--9-|

D|-------------------------------------------------------------------------|
A|-------------------------------------------------------------------------|
F|-------------------------------------------------------------------------|
C|--9--9--9--9--9--9--7--7--7--7--7--7--5--5--5--5--5--5--5--5--5--5--5--5-|
G|--5--5--5--5--5--5--5--5--5--5--5--5--5--5--5--5--5--5--5--5--5--5--5--5-|
C|--5--5--5--5--5--5--5--5--5--5--5--5--5--5--5--5--5--5--5--5--5--5--5--5-|


D|-------------------------------------------------------------------------|
A|-------------------------------------------------------------------------|
F|-11-11-11-11-11-11-9--9--9--9--9--9--12-12-12-12-12-12-11-11-11-11-11-11-|
C|-x--x--x--x--x--x--x--x--x--x--x--x--x--x--x--x--x--x--x--x--x--x--x--x--|
G|-9--9--9--9--9--9--7--7--7--7--7--7--10-10-10-10-10-10-9--9--9--9--9--9--|
C|-0--0--0--0--0--0--0--0--0--0--0--0--0--0--0--0--0--0--0--0--0--0--0--0--|


D|------------------------------------------------------------------------||
A|------------------------------------------------------------------------||
F|------------------------------------------------------------------------||
C|-7--7--7--7--7--7-9--9--9--9--9--9--11-11-11-11-11-11-11-11-11-11-11-11-||
G|-7--7--7--7--7--7-7--7--7--7--7--7--7--7--7--7--7--7--7--7--7--7--7--7--||
C|-7--7--7--7--7--7-7--7--7--7--7--7--7--7--7--7--7--7--7--7--7--7--7--7--||

Verse 2 (same as Verse 1 for this guitar)

Pre-Chorus 2 (w/distortion):
[ Tab from: http://www.guitartabs.cc/tabs/s/sick_puppies/all_the_same_tab_ver_10.html ]
D|--------------------------------------------------------------------|
A|--------------------------------------------------------------------|
F|--------------------------------------------------------------------|
C|--5-0--0--0----------------5-0--0--0----------------5--0--0--0--0~--|
G|--5-0--0--0----------------5-0--0--0----------------5--0--0--0--0~--|
C|--5-0--0--0--3-3-3-3-3-3---5-0--0--0--3-3-3-3-3-3---5--0--0--0--0~--|
               . . . . . .              . . . . . .
              (natural harmonics)

D|-----------------------------|
A|-----------------------------|
F|-----------------------------|
C|-----------------------------|
G|--0-0-0-0-0-0-0-0-0-0-0-0----|
C|--0-0-0-0-0-0-0-0-0-0-0-0----|
   [---------------------------|
          P.M.(palm mute)

Chorus 1 (distorted)

Bridge: (distorted; right before solo)

D|---------------------------------------|
A|---------------------------------------|
F|---------------------------------------|
C|--5--5--5--0-5--5--5--5-5--5--5--5--5--|
G|--5--5--5--0-5--5--5--5-5--5--5--5--5--|
C|--5--5--5--0-5--5--5--5-5--5--5--5--5--|

Solo: (distorted)

D|-----------------------------------------------------------------------|
A|-----------------------------------------------------------------------|
F|--11^(12)--9--7--7-7-7h9--9-9-9h11--11-11-11^(12)--9-------------------|
C|------------------------------------------------------11--11-11-11h12--|
G|-----------------------------------------------------------------------|
C|-----------------------------------------------------------------------|

D|----------------------------------------------------|
A|-----------------------------------------------/10--|
F|------------------11^(12)--9--7--7-7--11^(12)-------|
C|--12-12--7--7-7-------------------------------------|
G|----------------------------------------------------|
C|----------------------------------------------------|


D|------------------------------------------------|
A|------------------------------------------------|
F|------------------------------------------------|
C|--5--0--0--0-5--0--0--0-5--0--0--0-x-x-x-x-x-x--|
G|--5--0--0--0-5--0--0--0-5--0--0--0-x-x-x-x-x-x--|
C|--5--0--0--0-5--0--0--0-5--0--0--0-x-x-x-x-x-x--|

Outro:

D|------|
A|------|
F|--11~-|
C|--x~--|
G|--9~--|
C|--0~--|

Guitar 2 (the stuff that im not really sure about but its close)

Verse 1: Guitar 2 just hits the Guitar 1 verse chords and holds them.

Verse 2: (clean/compressed w/a little distortion)

D|-----------------------------------------------|
A|-----------------------------------------------|
F|--11----------------------------------------7--|
C|--x---------0-4----4-----------0-4-----4----5--|
G|--9-------0-------------0----0-------0------5--|
C|--0-------0-------------0-------------------5--|

Chorus: (All) Repeat once and hold note on 14th fret at the end.

D|------------------------------------------------------|
A|------------------------------------------------------|
F|--------14-14--------14-14--------14-14--------14-14--|
C|--11h12--------11h12--------11h12--------11h12--------|
G|------------------------------------------------------|
C|------------------------------------------------------|

D|------------------------------------------------------|
A|------------------------------------------------------|
F|--------14-14--------14-14--------14-14--------14-14--|
C|-11h12--------11h12--------11h12--------11h12---------|
G|------------------------------------------------------|
C|------------------------------------------------------|

D|-------------------------------------------------------------------------|
A|-------------------------------------------------------------------------|
F|-11-11-11-11-11-11-9--9--9--9--9--9-12-12-12-12-12-12-11-11-11-11-11-11--|
C|-------------------------------------------------------------------------|
G|-------------------------------------------------------------------------|
C|-------------------------------------------------------------------------|

D|-------------------------------------------------------------------------|
A|-10-10-10-10-10-10-12-12-12-12-12-12-14-14-14-14-14-14-14-14-14-14-14-14-|
F|-------------------------------------------------------------------------|
C|-------------------------------------------------------------------------|
G|-------------------------------------------------------------------------|
C|-------------------------------------------------------------------------|


Solo: (distorted)

D|------------------------------------------|
A|------------------------------------------|
F|------------------9~------------------7~--|
C|--0~--------------7~------------------5~--|
G|--0~--------------7~------------------5~--|
C|--0~--------------7~------------------5~--|

D|-------------------------------------------|
A|-------------------------------------------|
F|-------------------------------------------|
C|--5--0--0--0-5--0--0--0-5--0--0--0---------|
G|--5--0--0--0-5--0--0--0-5--0--0--0---------|
C|--5--0--0--0-5--0--0--0-5--0--0--0----12\--|

Outro:

D|------|
A|------|
F|------|
C|--0~--|
G|--0~--|
C|--0~--|

this took me 3 days to write
Comments