Sick Puppies - All The Same Chords & Tabs

 

All The Same Chords & Tabs

Sick Puppies Chords & Tabs

Version: 2 Type: Bass Tab 0 ratings
1 star 2 stars 3 stars 4 stars 5 stars
comments

All The Same Bass Tab

   
Note: The bass doesn't actually play in the first verse or chorus,
 but when they play live, Emma usually will hit the note with the 
volume knob all the way down, then bring it up and back down as 
the note rings during the first verse. I've also tabbed the way 
she plays the first chorus live, which is basically the 'lead' 
notes on the rhythm guitar played during the chorus. 

Verse

f|------------------|
c|------------------|
g|------------------|
c|-0~--11~--9~--5~--| x2

Chorus 1

f|--------------------------------------------------------|
c|-12121212121111111111999999999999999999999777777555555--|
g|--------------------------------------------------------|
c|--------------------------------------------------------|

f|-1111111111111111999999991212121211111111-----------------|
c|-----------------------------------------7777799999111111-|
g|----------------------------------------------------------|
c|----------------------------------------------------------| x2

Verse

Pre Chorus
[ Tab from: http://www.guitartabs.cc/tabs/s/sick_puppies/all_the_same_btab_ver_2.html ]
f|-------------------|
c|-------------------|
g|-------------------|
c|-50000-50000-50000-|

Chorus

f|----------------------------------------------------------------------------|
c|----------------------------------10h12121212-10h12121212-------------------|
g|----------------------------------------------------------------------------|
c|-99999999999999995555555555555555------------------------7777777777777777x2-|

Bridge 

f|----------------7-------------------------------------|
c|----------------0-------------------------------------|
g|----------------5-55555555555557777777777-------------|
c|-0555-0555-0555-0~-----------------------555555555555-|

f|----------------------------------------------------------------------------|
c|-5----5----5----5-----------------------------------------------------------|
g|--------------------555555555555555555555777777777777777777777--------------|
c|--000--000--000--000-------------------------------------------555555555555-|
   psss psss psss psss

Chorus
End

f|-7~
c|-0~
g|-5~
c|-0~
Comments