Sick Of It All - Stood For Nothing Chords & Tabs

 

Stood For Nothing Chords & Tabs

Sick Of It All Chords & Tabs

Version: 1 Type: Tab 0 ratings
1 star 2 stars 3 stars 4 stars 5 stars
comments

Stood For Nothing Tab

Sick Of It All
Stood For Nothing
Terror Firmer Soundtrack
Tabbed by James Low whatisaturnip@yahoo.co.uk

Tuning- EADGBE

STOOD FOR NOTHING, STOOD FOR NOTHING

---------------------------------------------
---------------------------------------------
66666666666666666666666666666666666666-------
66666666666666666666666666666666666666-------
44444444444444444444444444444444444444-------
---------------------------------------------
[ Tab from: http://www.guitartabs.cc/tabs/s/sick_of_it_all/stood_for_nothing_tab.html ]
---------------------------------------------
---------------------------------------------
---9-------9-------6666666666666666666666666-
---9---8---9---8---6666666666666666666666666-
---7---8---7---8---4444444444444444444444444-
-------6-------6-----------------------------

---------------------------------------------
---------------------------------------------
-------7---9---------------7---9-------------
---9---7---9---7---8---9---7---9---7---x-x-x-
---9---5---7---7---8---9---5---7---7---x-x-x-
---7-----------5---6---7-----------5---x-x-x-
                                       harm

---------------------------------------------
---------------------------------------------
--6666666666666666666666---6--6--6--6--------
--6666666666666666666666---6--6--6--6--------
--4444444444444444444444---4--4--4--4--------
---------------------------------------------
                         
Enjoy!
Comments