Sick Of It All - Step Down Chords & Tabs

 

Step Down Chords & Tabs

Sick Of It All Chords & Tabs

Version: 2 Type: Tab 0 ratings
1 star 2 stars 3 stars 4 stars 5 stars
comments

Step Down Tab

   
------------------------------------------------------------------------------- 
STEP DOWN - Sick Of It All 
------------------------------------------------------------------------------- 

BY:CHAD KLATT 

Opening bass guitar 
(gklatt@cableregina.com) 

G:-----------------------------------------------------------------------| 
D:-----------------------------------------------------------------------| 
A:--------------------4-4-4-4-4-4-4-4--7-7-7-7-7-7-7-7--6-6-6-6-6-6-6-6--| 
E:--3-3-3-3-3-3-3-3------------------------------------------------------| 

GUITAR 
E:9-9-9-9-9-9-9-9-9-9-9-9-9-9-9-9-9-9-9-9-9-9-9-9-9------ 
B:------------------------------------------------------- 
G:------------------------------------------------------- 
D:------------------------------------------------------- 
A:------------------------------------------------------- 
E:------------------------------------------------------- 

VERSE 
E:-------------------------------------------| 
B:-------------------------------------------| 
G:------------6-6-6-6--9-9-9-9--8-8-8-8------| 
D:---5-5-5-5--6-6-6-6--9-9-9-9--8-8-8-8------| 
A:---5-5-5-5--4-4-4-4--7-7-7-7--6-6-6-6------| 
E:---3-3-3-3---------------------------------| 
[ Tab from: http://www.guitartabs.cc/tabs/s/sick_of_it_all/step_down_tab_ver_2.html ]
PRE-CHORUS 
E:------------------------------------------------------------------------- 
B:------------------------------------------------------------------------- 
G:------------------------------------------------------------------------3 
D:--x-x-x-x-x-x--2--x-x-x-x-x-x--2--x-x-x-x-x-x--2--x-x-x-x-x-x-2-2-2-2-2-3 
A:--x-x-x-x-x-x--2--x-x-x-x-x-x--2--x-x-x-x-x-x--2--x-x-x-x-x-x-2-2-2-2-2-3 
E:--x-x-x-x-x-x--2--x-x-x-x-x-x--2--x-x-x-x-x-x--2--x-x-x-x-x-x-2-2-2-2-2-- 
REPEAT STARTING BASS 

E:-9-9-9-9-9-9-9-9-9-9-9-9-9-9-9-9-9-9-9--9-9-9-8-9-9-9-8--11-11-11-11-10-| 


REPEAT VERSE 

REPEAT PRE-CHORUS 

CHORUS 
E:-----------------------------------------------------------------------------------------| 
B:-----------------------------------------------------------------------------------------| 
G:-----------------------------------------------------------------------------------------| 
D:3-3-3-3-3-3-3-3-3-4-4-4-4-4-4-4-4-4-4-4--3-3--2-2-2-2-2-2-2-2-2-3-3--2-2-2-2-2-2-2-2-2-2-| 
A:3-3-3-3-3-3-3-3-3-4-4-4-4-4-4-4-4-4-4-4--3-3--2-2-2-2-2-2-2-2-2-3-3--2-2-2-2-2-2-2-2-2-2-| 
E:3-3-3-3-3-3-3-3-3-4-4-4-4-4-4-4-4-4-4-4--3-3--2-2-2-2-2-2-2-2-2-3-3--2-2-2-2-2-2-2-2-2-2-| 

E:----------------------------| 
B:----------------------------| 
G:----------------------------| 
D:3-3-4-4-5-5-4-4-2-2-4-4-3-3-| [caught up in a trap of mediacrap so.......] 
A:3-3-4-4-5-5-4-4-2-2-4-4-3-3-| 
E:3-3-4-4-5-5-4-4-2-2-4-4-3-3-| 

REPEAT VERSE AGAIN 

E:---------------------------| 
B:---------------------------| 
G:---------------------------| [wich will cause them tostep down ,stepdown!] 
D:--2-2-2-3-2-2-2-3-2-2-2---2| 
A:--2-2-2-3-2-2-2-3-2-2-2---2| 
E:--2-2-2-3-2-2-2-3-2-2-2---2| 

-------------------------------------------------------------------------------
Comments