Sick Of It All - Step Down Chords & Tabs

 

Step Down Chords & Tabs

Sick Of It All Chords & Tabs

Version: 1 Type: Tab 0 ratings
1 star 2 stars 3 stars 4 stars 5 stars
comments

Step Down Tab

------------------------------------------------------------------------------- 
                             STEP DOWN - SICK OF IT ALL 
------------------------------------------------------------------------------- 

By:Jon Wong: jkwong@pixi.com 

BASS INTRO: 
G|--------------------------------------------------------------------| 
D|--------------------------------------------------------------------| 
A|-----------3-3-3-3--6-6-6-6--5-5-5-5--------------------------------| 
E|-3-3-3-3------------------------------------------------------------| 

VERSE: 
e|--------------------------------------------------------------------| 
B|--------------------------------------------------------------------| 
G|--------------------------------------------------------------------| 
D|----------5-5-5-5--8-8-8-8---7-7-7-7-------2--2--2------------------| 
A|-5-5-5-5--3-3-3-3--6-6-6-6---5-5-5-5----x4-2--2--2------------------| 
E|-3-3-3-3-----------------------------------0-0--0-------------------| 
[ Tab from: http://www.guitartabs.cc/tabs/s/sick_of_it_all/step_down_tab.html ]
PLEASE HAVE MORE TO GIVE... PART: 
e|--------------------------------------------------------------------| 
B|--------------------------------------------------------------------| 
G|--------------------------------------------------------------------| 
D|-5-5-5-5------8-8-8-8----9-9-9-9-------2-2-2-2----------------------| 
A|-3-3-3-3------6-6-6-6----7-7-7-7--x2---2-2-2-2----------------------| 
E|---------------------------------------0-0-0-0----------------------| 

CAUGHT UP IN A TRAP... PART: 
e|--------------------------------------------------------------------| 
B|--------------------------------------------------------------------| 
G|--------------------------------------------------------------------| 
D|-7-7-7-7-10-10-10-10----------------7-7-7-7-------------------------| 
A|-5-5-5-5--8--8--8--8---10-10-10-10--5-5-5-5---X4--------------------| 
E|------------------------8--8--8--8----------------------------------| 

=============================================================================
Comments