Sick Of It All - Sanctuary Chords & Tabs

 

Sanctuary Chords & Tabs

Sick Of It All Chords & Tabs

Version: 1 Type: Tab 0 ratings
1 star 2 stars 3 stars 4 stars 5 stars
comments

Sanctuary Tab

------------------------------------------------------------------------------- 
                   SANCTUARY - Sick Of It All 
------------------------------------------------------------------------------- 

By:THE "RYAN" 

e|-------Intro---------------------------------------------------------------| 
B|---------------------------2x----------------------------------------------| 
G|--------7-7-7--5-5-5-------------------------------------------------------| 
D|-5-5-5--7-7-7--5-5-5--5----------------------------------------------------| 
A|-5-5-5--5-5-5--3-3-3--5----------------------------------------------------| 
E|-3-3-3----------------3----------------------------------------------------| 

e|--------verse---do it many times-------------------------------------------| 
B|---------------------------------------------------------------------------| 
G|----------------7--77-7--77--5-555555--4-555555----------------------------| 
D|-5--5-5--5--55--7--77-7--77----------------------5-5-----------------------| 
A|-5--5-5--5--55--5--55-5--55--3-333333--2-333333--5-5-----------------------| 
E|-3--3 3--3--33-----------------------------------3-3-----------------------| 

e|---chorus----------------------repeat as needed----------------------------| 
B|---------------------------------------------------------------------------| 
G|-----------55555--77777----------------------------------------------------| 
D|-55555555--55555--77777---5----5-------------------------------------------| 
A|-55555555--33333--55555---5----5-------------------------------------------| 
E|-33333333-----------------3----3-------------------------------------------| 
[ Tab from: http://www.guitartabs.cc/tabs/s/sick_of_it_all/sanctuary_tab.html ]
e|---bridge------------------------------------------------------------------| 
B|---------------------------------------------------------------------------| 
G|-----7-5--------7-5--------------------------------------------------------| 
D|--5--7-5--5--5--7-5-5------------------------------------------------------| 
A|--5--5-3--5--5--5-3-5------------------------------------------------------| 
E|--3-------3--3------3------------------------------------------------------| 

e|---outro----------------------------repeat many many times-----------------| 
B|---------------------------------------------------------------------------| 
G|---------------------5-5-xxx--7777-----------------------------------------| 
D|--5-5-xxxx-5-5-xxxx--5-5-xxx--7777-----------------------------------------| 
A|--5-5-xxxx-5-5-xxxx--3-3 xxx--5555-----------------------------------------| 
E|--3-3-xxxx-3-3-xxxx--------------------------------------------------------| 

Your My Sanctuary 
e|---------------------------------------------------------------------------| 
B|------------------last notes-----------------------------------------------| 
G|------7---5*---------------------------------------------------------------| 
D|--5---7---5*--<--Ring out--------------------------------------------------| 
A|--5---5---3*---------------------------------------------------------------| 
E|--3------------------------------------------------------------------------| 

The song is basic punk chords c,d,g. octaves are used for the verse. 
Sick of it all almost sounds like a punk band with this song but it's just 
one song that happens to sound like it. I know i did this correctly. 
I sat here for atleast 3 minutes to figure it out and tab it. 
Anything else i can tab for you e mail me at rworgull@yahoo.com 

-------------------------------------------------------------------------------
Comments