Sick Of It All - Potential For A Fall Chords & Tabs

 

Potential For A Fall Chords & Tabs

Sick Of It All Chords & Tabs

Version: 1 Type: Bass Tab 0 ratings
1 star 2 stars 3 stars 4 stars 5 stars
comments

Potential For A Fall Bass Tab

   
Song: Potential for a fall
Artist: SICK OF IT ALL
Album: CALL TO ARMS
Tabbed by R. Camacho (symptom7@excite.com)

 Intro. 
G[-----------------------------------------]
D[-----------------------------------------]
A[-0-2-0-2-0-2-0-2-33-0-2-0-2-0-2-0-2------]
E[------------------------------------0000-]

                                        *(Ring out)
G[-----------------------------------------]
D[-----------------------------------------]
A[-0-2-0-2-0-2-0-2-/55-0-2-0-2-0-2-0-2-----]
E[-------------------------------------0*--]

 Verse                             (Play 6X)
G[-----------------------------------------]
D[-----------------------------------------]
A[-----------------------------------------]
E[-3-00-0-0-3-00-0-0-3-00-0-0-3-0-5-555----]

 Chorus                                (Play 2X)
G[---------------------------------------------]
D[---------------------------------------------]
A[------5h7-7------5h7-7------5h7-7------------]
E[-0-00-------0-00-------0-00-------8888-7777--]

                                       
G[---------------------------------------------]
D[---------------------------------------------]
A[-7777------7777------7777--------------------]
E[------0000------0000------0000-8888-7777-----]

                                                *(Ring out)
G[-----------------------------------------------]
D[-----------------------------------------------]
A[------5h7-7------5h7-7------5h7-7-----------5*-]
E[-0-00-------0-00-------0-00-------8888-7777----]


G[----------------]
D[----------------]
A[-555---55---55--]
E[-----0----0-----]


 Verse                             (Play 4X)
G[-----------------------------------------]
D[-----------------------------------------]
A[-----------------------------------------]
E[-3-00-0-0-3-00-0-0-3-00-0-0-3-0-5-555----]

[ Tab from: http://www.guitartabs.cc/tabs/s/sick_of_it_all/potential_for_a_fall_btab.html ]
 Chorus                                (Play 2X)
G[---------------------------------------------]
D[---------------------------------------------]
A[------5h7-7------5h7-7------5h7-7------------]
E[-0-00-------0-00-------0-00-------8888-7777--]

                                       
G[---------------------------------------------]
D[---------------------------------------------]
A[-7777------7777------7777--------------------]
E[------0000------0000------0000-8888-7777-----]

                                                *(Ring out)
G[-----------------------------------------------]
D[-----------------------------------------------]
A[------5h7-7------5h7-7------5h7-7-----------5*-]
E[-0-00-------0-00-------0-00-------8888-7777----]

 Bridge                                 (Play 2x)
G{----------------------------------------------]
D[----------------------------------------------]
A[----------------------------------------------]
E[-3-2-0-0000-3-2-0-0000-3-2-0-0000-3-2-0-0000--]

G{----------------------------------------------]
D[----------------------------------------------]
A[-------7777-------7777-------7777-------------]
E[-3-2-0------3-2-0------3-2-0------3-2-0-3-2-0-]

                         *(Play Open E  16X)
G{--------------------------]
D[--------------------------]
A[-------7777-------7777----]
E[-3-2-0------3-2-0------0*-]


 Chorus                                (Play 2X)
G[---------------------------------------------]
D[---------------------------------------------]
A[------5h7-7------5h7-7------5h7-7------------]
E[-0-00-------0-00-------0-00-------8888-7777--]

                                       
G[---------------------------------------------]
D[---------------------------------------------]
A[-7777------7777------7777--------------------]
E[------0000------0000------0000-8888-7777-----]

 Ending Riff
G{----------------------------------------------]
D[----------------------------------------------]
A[----------------------------------------------]
E[-3-2-0-0000-3-2-0-0000-3-2-0-0000-3-2-0-0000--]

Comments